Oops, an error
Loading. Please wait.

Stinkfist tab

version 5
version 5
by Tool
24,891 views 126 this week
6 commentsread comments
1 2 3 4 5
x 5
add to favorites
×
Save as Personal and add changes to this tab that will be seen only by you. Learn more ›
×
You can save this tab as Personal to edit and correct it or add notes. All changes will be seen only by you. Learn more »
launch autoscroll
font size
0
reset
how to read this tab
guitar tuner
backing track
0:00
0:00
edit
Autoscroll
slow
fast
+/-
esc
set tempo
stop
[Sampled intro]
(distortion, flange, delay)

*feedback*

                       x7
E|-----|-----------------|
B|-----|-----------------|
G|-----|-----------------|
D|-----|-----------------|
A|-----|---5-------------|
D|--2--|--------2~~------|

(delay off)

                 x8                x7
E|-----------------|-----------------|------------------|
B|-----------------|-----------------|------------------|
G|-----------------|-----------------|------------------|
D|-----------------|-----------------|------------------|
A|--5--------------|--5--------------|--5---------------|
D|------2-2--2-2---|------2-2--------|------2-2--2-2----|
       pm- - -|          pm-               pm- - ------|

E|--------------------------------------------------------------|
B|--0--------0-------0--------------0-------0------------0------|
G|--0--------0-------0--------------0-------0------------0------|
D|--0---2----0--2----0--2---0--2----0--2----0--2---0--2--0--2---|
A|------2-------2-------2---0--2-------2-------2---0--2-----2---|
D|------2-------2-------2---0--2-------2-------2---0--2-----2---|

E|---------------------------------------------|
B|-------------------------3-------------------|
G|-------------------------2-------------------|
D|--2--2--/10--10----0-----0-----0---x-x--2h3--| x3
A|--2--2--/10--10----0-----0-----0---x-x--2h3--|
D|--2--2--/10--10----0-----0-----0---x-x--2h3--|

E|------------------------|
B|------------------------|
G|------------------------|
D|--2--2--/10--10---------|
A|--2--2--/10--10---------|
D|--2--2--/10--10----12b--|

  (flange and delay)
                       x7
E|-----|-----------------|
B|-----|-----------------|
G|-----|-----------------|
D|-----|-----------------|
A|-----|---5-------------|
D|--2--|--------2~~------|

(delay off)

                 x8                x7
E|-----------------|-----------------|-----------------|
B|-----------------|-----------------|-----------------|
G|-----------------|-----------------|-----------------|
D|-----------------|-----------------|-----------------|
A|-----------------|--5--------------|--5b-------------|
D|--x--2-2---2-2---|------2-2--2-2---|-----------------|
      pm - - -|

E|--------------------------------------------------------------|
B|--0--------0-------0--------------0-------0------------0------|
G|--0--------0-------0--------------0-------0------------0------|
D|--0---2----0--2----0--2---0--2----0--2----0--2---0--2--0--2---|
A|------2-------2-------2---0--2-------2-------2---0--2-----2---|
D|------2-------2-------2---0--2-------2-------2---0--2-----2---|

E|---------------------------------------------|
B|-------------------------3-------------------|
G|-------------------------2-------------------|
D|--2--2--/10--10----0-----0-----0---x-x--2h3--| x3
A|--2--2--/10--10----0-----0-----0---x-x--2h3--|
D|--2--2--/10--10----0-----0-----0---x-x--2h3--|

E|------------------------|
B|------------------------|
G|------------------------|
D|--2--2--/10--10---------|
A|--2--2--/10--10---------|
D|--2--2--/10--10----12b--|

(delay on)

E|----------------------------|
B|----------------------------|
G|--2-------------------------|
D|--2----2--------------------|
A|--0----0--------7-77-5b-----|
D|-------3----3/5-------------|

*light feedback, followed by a pickscrap on the high D string*

*rest for 6 bars*

(flange and delay)

[Solo]
*random natural harmonics near pickups on E/B/G strings*

E|---------------------------------|
B|---------------------------------|
G|---------------------------------|
D|-----14----14----14----14----14--| x6
A|--17----17----17----17----17-----|
D|---------------------------------|

*slide hand down fretboard*

*rest 2 bars*

E|--x-x--x-x--x--|
B|--x-x--x-x--x--|
G|--x-x--x-x--x--| x2
D|--x-x--x-x--x--|
A|--x-x--x-x--x--|
D|--x-x--x-x--x--|

*quick pickscrap on the high D string*

E|---------------------------------|
B|---------------------------------|
G|---------------------------------|
D|-----14----14----14----14----14--| x6
A|--17----17----17----17----17-----|
D|---------------------------------|

E|---------------------------------------------------------------|
B|---------------------------------------------------------------|
G|---------------------------------------------------------------|
D|-----------15-------15-----15-----15-----15---------15----15---|
A|---19------------------19-----19-----19-----19---19----19------|
D|---------------------------------------------------------------|

E|---------------------------------|
B|---------------------------------|
G|---------------------------------|
D|-----14----14----14----14----14--| x6
A|--17----17----17----17----17-----|
D|---------------------------------|

(flange and delay off)

E|-----------------------------------------------------------|
B|-----------------------------------------------------------|
G|-----------------------------------------------------------|
D|--2-2-2-2-2-22--2-2-2-2-2-22--2-2-2-2-2-22--2-2-2-2-2-2-2--|
A|--2-2-2-2-2-22--2-2-2-2-2-22--2-2-2-2-2-22--2-2-2-2-2-2-2--|
D|--2-2-2-2-2-22--2-2-2-2-2-22--2-2-2-2-2-22--2-2-2-2-2-2-2--|
  pm - - - - - - - - -  - - - - - - - - - -| (natural harm)

                                    x2
E|-------------------------------------|--------------------------------------------|
B|-------------------------------------|------15-15-15--15-15-15-15--15--15-15-15\--|
G|-------------------------------------|------14-14-14--14-14-14-14--14--14-14-14\--|
D|--14-14--14-14--16--14-14--14-14--0--|--12--12-12-12--12-12-12-12--12--12-12-12\--| (x2)
A|--14-14--14-14--16--14-14--14-14--0--|--12----------------------------------------|
D|--14-14--14-14--16--14-14--14-14--0--|--12----------------------------------------|

E|---------------------------------------------|
B|---------------------------------------------|
G|---------------------------------------------|
D|--12---12/14-14---14-14--11--2--2--2--2--2/--| x2
A|--10---10/12-12---12-12--9---2--2--2--2--2/--|
D|--10---10/12-12---12-12--9---2--2--2--2--2/--|

E|----------------------------------------------|
B|----------------------------------------------|
G|----------------------------------------------|
D|--12---12/14-14---14-14--11---9-----(9)--(9)--|
A|--10---10/12-12---12-12--9----7-----(7)--(7)--|
D|--10---10/12-12---12-12--9----7-----(7)--(7)--|

(light picking with flange)

E|----------------------------------------------|
B|--------------------------------------0---0---|
G|--------------------------------------0---0---|
D|--12---12/14-14---14-14--11---9-----9---9-----|
A|--10---10/12-12---12-12--9----7-----7---7-----|
D|--10---10/12-12---12-12--9----7-----7---7-----|

E|------------------------------|
B|------------------------------|
G|------------------------------|
D|--12---12/14-14---14-14--11---|
A|--10---10/12-12---12-12--9----|
D|--10---10/12-12---12-12--9----|

(hard picking, flange off)

E|---------------------------------------------------------|
B|--5----------5----------5------------8--8-8--10-10--7----|
G|--4----------4----------4------------7--7-7--9--9---6----|
D|--2--x--x-x--2--x--x-x--2--x-x--x-x--5--5-5-/7--7--4-----| x2
A|--2--x--x-x--2--x--x-x--2--x-x--x-x--5--5-5-/7--7--4-----|
D|--2--x--x-x--2--x--x-x--2--x-x--x-x--5--5-5--7--7---4----|

E|---------------------------------------------|
B|-------------------------3-------------------|
G|-------------------------2-------------------|
D|--2--2--/10--10----0-----0-----0---x-x--2h3--| x3
A|--2--2--/10--10----0-----0-----0---x-x--2h3--|
D|--2--2--/10--10----0-----0-----0---x-x--2h3--|

E|------------------------|
B|------------------------|
G|------------------------|
D|--2--2--/10--10---------|
A|--2--2--/10--10---------|
D|--2--2--/10--10----12b--|

*light feedback*



************************************

| x    Dead note
| (n)  Ghost note
| h    Hammer-on
| b    Bend
| /    Slide up
| \    Slide down
| ~    Vibrato 

************************************
Suggest correction
Creating personal tab
Creating personal tab
You can edit any tab online and save it as your Personal.

You can edit, replace or remove any tab part or add personal notes – all changes will be seen only by you.

Personal tabs can be accessed anytime from any device, even offline.
Learn more »
comments
print report bad tab
6 comments total. Showing first comments.
0 reply
4stringthing 10 May 06, 2006 05:39 AM

pretty good tab

0 reply
Negative-creep 20 Jul 11, 2006 06:32 AM

GREAT tab :D thnx

-2 reply
BransonHuggins 31 Jul 25, 2006 09:04 AM

this was stolen straight from Tooltabs.net, if you want good tabs go there.

guest
You may want to rate the tab now too:
select rating
Wanna post a correction for this tab? Suggest correction