Oops, an error
Loading. Please wait.

Swamp Song bass

version 2
version 2

Whole song

Interactive

by Tool
12,430 views 36 this week
no commentswrite comment
1 2 3 4 5
x 9
add to favorites
×
Save as Personal and add changes to this tab that will be seen only by you. Learn more ›
×
You can save this tab as Personal to edit and correct it or add notes. All changes will be seen only by you. Learn more »
launch autoscroll
font size
0
reset
guitar tuner
edit
Autoscroll
slow
fast
+/-
esc
set tempo
stop
Tool
Swamp Song

GDAD

verse
G----------------------------------|
D----------------------------------|
A-----------5--------3--------3h5--|
D--0---3h0-----3--0-----5--0-------|

last time going into chorus
G----------------------5--------5--7------------------------------------|
D----0--3-----5--3--0-----5--0-----------0--3-----5--3-----0--3---------|
A-----------------------------------------------------------------------|
D-0--------0--------------------------0--------0--------0--------0--7\--|

Chorus
G---------------------------------------|
D---------------------------------------|
A----3----------------3-----------------|
D-0----5--0--3--5--0----5--0--3-0--3-5--|

Post-Chorus
G------------------|
D------------------|
A------------------|
D-5-3-3-5---3---0--|

Verse
Chorus
Post-Chorus
Verse
Chorus

Pre-bridge (2:30)
G----------------------------------------|
D----------------------------------------|
A----------------------------------------|
D-5-3-3-5---5-3-3-5---5-3-3-5---3---3-5--|

G----------------------------------|
D----------------------------------|
A----------------------------------|
D-5-3-3-5---5-3-3-5---5-3-3-5---3--|

Bridge (2:38)
G-----------------------------------------------------|
D-----------------------------------------------------|
A-------5-------------3-------------------------------|
D-0--0-------0--0--0-------0---0-0-0-2---2--2-3-5--0--|

(2:45)
G-------------------------------------|    played slightly palm muted
D-------------------------------------|    in the MIDDLE of the 12th fret 
A--<12>---<12>-<12>-<12>--<12>--<12>--|    harmonics.
D-------------------------------------|




(3:00)
G---------------------|    all notes palm muted
D-----7---------5-----|
A--0------5--7-----7--|
D---------------------|

G--------------------------------------|
D--------------------------------------|
A--------------------------------------|
D--0--------0--------0--------0--------|


(3:17)
   
G--<7>---<7>-<7>-<7>-----<7>------|    harmonics
D--------------------<7>-----<7>--|    
A---------------------------------|    
D---------------------------------|

G--------------------------------------|
D--------------------------------------|
A--------------------------------------|
D--0--------0--------0--------0--------|

(3:27)
G---------------------|    no palm mute
D---------------5-----|
A--0------5--7-----7--|
D---------------------|

G--------------------------------------|
D--------------------------------------|
A--------------------------------------|
D--0--------0--------0--------0--------|

(3:49)
G-----------------------------------------|
D-----------------------------------------|
A-----------------------------------------|
D-0--x--0--x--0-0-0-0--0--x--0--x--0-0-0--|

(4:09)
G-------------------|
D-------------------|
A-------------------|
D--5---8---10---12--|


(4:15)
G---------------------------------------------------------------------------
D---------------------------------------------------------------------------
A----5--8-----5--8-----5--8-----3---3-----5--8-----5--8-----5--8-----3---3--
D-0--------0--------0--------0---------0--------0--------0--------0---------

G---------------------------------------------------------------------------
D---------------------------------------------------------------------------
A----5--8-----5--8-----5--8-----3---3-----5--8-----5--8-----5--8------------
D-0--------0--------0--------0---------0--------0--------0--------0--5------



Verse (4:30)
Chorus

Ending (5:04)
G----------------------------------------|
D----------------------------------------|
A----------------------------------------|
D-5-3-3-5---5-3-3-5---5-3-3-5---3---3-5--|

G-------------------------------------------|
D-------------------------------------------|
A-------------------------------------------|
D-5-3-3-5---5-3-3-5---5-3-3-5-------3-------|

            
            
Suggest correction
Creating personal tab
Creating personal tab
You can edit any tab online and save it as your Personal.

You can edit, replace or remove any tab part or add personal notes – all changes will be seen only by you.

Personal tabs can be accessed anytime from any device, even offline.
Learn more »
comments
print report bad tab
guest
You may want to rate the tab now too:
select rating
Wanna post a correction for this tab? Suggest correction