Oops, an error
Loading. Please wait.

Sweat Tab

version 2
version 2

Whole song

Interactive

9,700 views 24 this week
7 commentsread comments
1 2 3 4 5
x 6
add to favorites
launch autoscroll
font size
0
reset
how to read this tab
guitar tuner
Autoscroll
slow
fast
+/-
esc
set tempo
stop
Help us to improve Ultimate-Guitar.com Take our survey!
×
SWEAT
As recorded by Tool
(From the 1992 Album OPIATE)
Words and Music by Tool

[Gtr I](D A D G B E) - 'Untitled'
[Intro]
  Q=160
  EbD5EbF5GbF5D5  EbD5EbF5GbF5D5  EbD5EbF5GbF5D5  EbD5EbF5GbF5D5
 7/8
[Gtr I]
  E E E E E E E   E E E E E E E   E E E E E E E   E E E E E E E
e|---------------|---------------|---------------|----------------|
B|---------------|---------------|---------------|----------------|
G|---------------|---------------|---------------|----------------|
D|-1-0-1-3-4-3-0-|-1-0-1-3-4-3-0-|-1-0-1-3-4-3-0-|-1-0-1-3-4-3-0--|
A|-1-0-1-3-4-3-0-|-1-0-1-3-4-3-0-|-1-0-1-3-4-3-0-|-1-0-1-3-4-3-0--|
E|-1-0-1-3-4-3-0-|-1-0-1-3-4-3-0-|-1-0-1-3-4-3-0-|-1-0-1-3-4-3-0--|

   Eb5                  D5     EbD5       Dsus2
  4/4                2/4      5/8        4/4
         |-3-|
   E E E E E E E Q    E E Q    E E E Q    W
e|------------------|--------|----------|-0----|
B|------------------|--------|----------|-3----|
G|------------------|--------|----------|-2----|
D|-1-----1-1-1-1----|-1-0----|-1-0-0----|-0----|
A|-1-----1-1-1-1----|-1-0----|-1-0-0----|-0----|
E|-1-----1-1-1-1----|-1-0----|-1-0-0----|-0----|

  E5 D5EbD5E5     D5F5D5E5     D5EbD5E5     D5F5D5E5
 6/8
     PM----|      PM----|      PM----|      PM----|
  Q  E E E E   Q  E E E E   Q  E E E E   Q  E E E E
e|------------|------------|------------|------------|
B|------------|------------|------------|------------|
G|------------|------------|------------|------------|
D|-2----------|-2----------|-2----------|-2----------|
A|-2--0-1-0-2-|-2--0-3-0-2-|-2--0-1-0-2-|-2--0-3-0-2-|
E|-2--0-1-0-2-|-2--0-3-0-2-|-2--0-1-0-2-|-2--0-3-0-2-|

  E5 D5EbD5E5     D5F5D5E5     D5G5D5    G5A5  G5
 6/8                                    2/4
     PM----|      PM----|      PM----|
  Q  E E E E   Q  E E E E   Q  E E E E   E E E E
e|------------|------------|------------|---------|
B|------------|------------|------------|---------|
G|------------|------------|------------|---------|
D|-2----------|-2----------|-2----------|-5s7-7s5-|
A|-2--0-1-0-2-|-2--0-3-0-2-|-2--0-5-0-0-|-5s7-7s5-|
E|-2--0-1-0-2-|-2--0-3-0-2-|-2--0-5-0-0-|-5s7-7s5-|

[First Verse]
    E5 D5EbD5E5     D5F5D5E5     D5EbD5E5     D5F5D5E5
   6/8
       PM----|      PM----|      PM----|      PM----|
    Q  E E E E   Q  E E E E   Q  E E E E   Q  E E E E
e|-------------|------------|------------|------------|
B|o------------|------------|------------|------------|
G|-------------|------------|------------|------------|
D|--2----------|-2----------|-2----------|-2----------|
A|o-2--0-1-0-2-|-2--0-3-0-2-|-2--0-1-0-2-|-2--0-3-0-2-|
E|--2--0-1-0-2-|-2--0-3-0-2-|-2--0-1-0-2-|-2--0-3-0-2-|

  E5 D5EbD5E5     D5F5D5E5     D5G5D5    G5A5  G5
 6/8                                    2/4
     PM----|      PM----|      PM----|
  Q  E E E E   Q  E E E E   Q  E E E E   E E E E
e|------------|------------|------------|---------|
B|------------|------------|------------|---------|
G|------------|------------|------------|---------|
D|-2----------|-2----------|-2----------|-5s7-7s5-|
A|-2--0-1-0-2-|-2--0-3-0-2-|-2--0-5-0-0-|-5s7-7s5-|
E|-2--0-1-0-2-|-2--0-3-0-2-|-2--0-5-0-0-|-5s7-7s5-|

  E5 D5EbD5E5     D5F5D5E5     D5EbD5E5     D5F5D5E5
 6/8
     PM----|      PM----|      PM----|      PM----|
  Q  E E E E   Q  E E E E   Q  E E E E   Q  E E E E
e|------------|------------|------------|------------|
B|------------|------------|------------|------------|
G|------------|------------|------------|------------|
D|-2----------|-2----------|-2----------|-2----------|
A|-2--0-1-0-2-|-2--0-3-0-2-|-2--0-1-0-2-|-2--0-3-0-2-|
E|-2--0-1-0-2-|-2--0-3-0-2-|-2--0-1-0-2-|-2--0-3-0-2-|

  E5 D5EbD5E5     D5F5D5E5     D5G5D5    G5A5  G5
 6/8                                    2/4
     PM----|      PM----|      PM----|
  Q  E E E E   Q  E E E E   Q  E E E E   E E E E
e|------------|------------|------------|---------|
B|------------|------------|------------|---------|
G|------------|------------|------------|---------|
D|-2----------|-2----------|-2----------|-5s7-7s5-|
A|-2--0-1-0-2-|-2--0-3-0-2-|-2--0-5-0-0-|-5s7-7s5-|
E|-2--0-1-0-2-|-2--0-3-0-2-|-2--0-5-0-0-|-5s7-7s5-|

[Pre-Chorus]
   E5 D5E5D5    E5   G5       A5  G5
  6/8                      2/4
   Q  E E E E   Q  E Q  E   E E E E
e|------------|-----------|---------|
B|------------|-----------|---------|
G|------------|-----------|---------|
D|-2--0-2-0-0-|-2----5--5-|-5s7-7s5-|
A|-2--0-2-0-0-|-2--0-5--5-|-5s7-7s5-|
E|-2--0-2-0-0-|-2--0-5--5-|-5s7-7s5-|

   E5 D5E5D5    E5   G5       A5  G5
  6/8                      2/4
   Q  E E E E   Q  E Q  E   E E E E
e|------------|-----------|---------|
B|------------|-----------|---------|
G|------------|-----------|---------|
D|-2--0-2-0-0-|-2----5--5-|-5s7-7s5-|
A|-2--0-2-0-0-|-2--0-5--5-|-5s7-7s5-|
E|-2--0-2-0-0-|-2--0-5--5-|-5s7-7s5-|

   E5 D5E5D5    E5   G5       A5  G5
  6/8                      2/4
   Q  E E E E   Q  E Q  E   E E E E
e|------------|-----------|---------|
B|------------|-----------|---------|
G|------------|-----------|---------|
D|-2--0-2-0-0-|-2----5--5-|-5s7-7s5-|
A|-2--0-2-0-0-|-2--0-5--5-|-5s7-7s5-|
E|-2--0-2-0-0-|-2--0-5--5-|-5s7-7s5-|

   E5 D5E5D5    E5   G5       A5  G5
  6/8                      2/4
   Q  E E E E   Q  E Q  E   E E E E
e|------------|-----------|---------|
B|------------|-----------|---------|
G|------------|-----------|---------|
D|-2--0-2-0-0-|-2----5--5-|-5s7-7s5-|
A|-2--0-2-0-0-|-2--0-5--5-|-5s7-7s5-|
E|-2--0-2-0-0-|-2--0-5--5-|-5s7-7s5-|

[Chorus]
                                                           [To Coda]
   (Dm)
  6/8                        2/4      6/8                     2/4
   Q  E Q  E   Q  E   Q   E   E E Q    Q  E Q  E   Q.   Q.     Q  Q
e|-----------|--------------|--------|-----------|-----------|--------|
B|-----------|--------------|--------|-----------|-----------|--------|
G|-7--7-7--7-|-7--7-/10--10-|-9-9-9--|-7--7-7--7-|-7----5----|-5--5---|
D|-0--0-0--0-|-0--0---0---0-|-0-0-0--|-0--0-0--0-|-0----0----|-0--0---|
A|-----------|--------------|--------|-----------|-----------|--------|
E|-----------|--------------|--------|-----------|-----------|--------|

  6/8                        2/4      6/8                       2/4
   Q  E Q  E   Q  E   Q   E   E E Q    Q  E Q  E   Q.    Q   E    H
e|-----------|--------------|--------|-----------|-------------|--------|
B|-----------|--------------|--------|-----------|-------------|-------o|
G|-7--7-7--7-|-7--7-/10--10-|-9-9-9--|-7--7-7--7-|-7----11--11-|--0-----|
D|-0--0-0--0-|-0--0---0---0-|-0-0-0--|-0--0-0--0-|-0-----0---0-|-10-----|
A|-----------|--------------|--------|-----------|-------0---0-|--0----o|
E|-----------|--------------|--------|-----------|-------------|--------|

   (Dm)
  6/8                        2/4      6/8                     2/4
   Q  E Q  E   Q  E   Q   E   E E Q    Q  E Q  E   Q.   Q.     Q  Q
e|-----------|--------------|--------|-----------|-----------|--------|
B|-----------|--------------|--------|-----------|-----------|--------|
G|-7--7-7--7-|-7--7-/10--10-|-9-9-9--|-7--7-7--7-|-7----5----|-5--5---|
D|-0--0-0--0-|-0--0---0---0-|-0-0-0--|-0--0-0--0-|-0----0----|-0--0---|
A|-----------|--------------|--------|-----------|-----------|--------|
E|-----------|--------------|--------|-----------|-----------|--------|

  6/8                         2/4      6/8                     2/4
    Q  E Q  E   Q  E   Q   E   E E Q    Q  E Q  E   Q.   Q.     Q  Q
e|------------|--------------|--------|-----------|-----------|--------|
B|------------|--------------|--------|-----------|-----------|--------|
G|-/7--7-7--7-|-7--7-/10--10-|-9-9-9--|-7--7-7--7-|-7----5----|-5--5---|
D|--0--0-0--0-|-0--0---0---0-|-0-0-0--|-0--0-0--0-|-0----0----|-0--0---|
A|------------|--------------|--------|-----------|-----------|--------|
E|------------|--------------|--------|-----------|-----------|--------|

  6/8                        2/4      6/8                       2/4
   Q  E Q  E   Q  E   Q   E   E E Q    Q  E Q  E   Q.    Q   E    H
e|-----------|--------------|--------|-----------|-------------|-------|
B|-----------|--------------|--------|-----------|-------------|-------|
G|-7--7-7--7-|-7--7-/10--10-|-9-9-9--|-7--7-7--7-|-7----11--11-|--0----|
D|-0--0-0--0-|-0--0---0---0-|-0-0-0--|-0--0-0--0-|-0-----0---0-|-10----|
A|-----------|--------------|--------|-----------|-------0---0-|--0----|
E|-----------|--------------|--------|-----------|-------------|-------|

[Bridge]
   E5                                     F5 D5Eb5D5
  4/4                                    6/8
   Q  Q  H      Q  Q  H      Q  Q  H      Q  E Q  E
e|------------|------------|------------|------------|
B|------------|------------|------------|------------|
G|------------|------------|------------|------------|
D|-2----------|-2----------|-2----------|-3--0-1--0--|
A|-2----------|-2----------|-2----------|-3--0-1--0--|
E|-2----------|-2----------|-2----------|-3--0-1--0--|

    E5
   4/4
       PM--------------------|
    Q  S S S S S S S S S S S S
e|-----------------------------|
B|o----------------------------|
G|-----------------------------|
D|--2--------------------------|
A|o-2--------------------------|
E|--2--2-2-2-2-2-2-2-2-2-2-2-2-|

     PM--------------------|      PM--------------------|
  Q  S S S S S S S S S S S S   Q  S S S S S S S S S S S S
e|----------------------------|----------------------------|
B|----------------------------|----------------------------|
G|----------------------------|----------------------------|
D|-2--------------------------|-2--------------------------|
A|-2--------------------------|-2--------------------------|
E|-2--2-2-2-2-2-2-2-2-2-2-2-2-|-2--2-2-2-2-2-2-2-2-2-2-2-2-|

  F5 D5Eb5D5  E5
 6/8         4/4
                 PM--------------------|      PM--------------------|
  Q  E Q  E   Q  S S S S S S S S S S S S   Q  S S S S S S S S S S S S
e|-----------|----------------------------|----------------------------|
B|-----------|----------------------------|----------------------------|
G|-----------|----------------------------|----------------------------|
D|-3--0-1--0-|-2--------------------------|-2--------------------------|
A|-3--0-1--0-|-2--------------------------|-2--------------------------|
E|-3--0-1--0-|-2--2-2-2-2-2-2-2-2-2-2-2-2-|-2--2-2-2-2-2-2-2-2-2-2-2-2-|

                               F5 D5Eb5D5   EbD5EbF5GbF5D5
                              6/8          7/8
     PM--------------------|
  Q  S S S S S S S S S S S S   Q  E Q  E    E E E E E E E
e|----------------------------|-----------||---------------|
B|----------------------------|-----------||---------------|
G|----------------------------|-----------||---------------|
D|-2--------------------------|-3--0-1--0-||-1-0-1-3-4-3-0-|
A|-2--------------------------|-3--0-1--0-||-1-0-1-3-4-3-0-|
E|-2--2-2-2-2-2-2-2-2-2-2-2-2-|-3--0-1--0-||-1-0-1-3-4-3-0-|

                                                         D.S. al Coda
   EbD5EbF5GbF5D5  EbD5EbF5GbF5D5  EbD5EbF5GbF5D5    Eb5
                                                    5/4
                                                           |-3-|
   E E E E E E E   E E E E E E E   E E E E E E E     E E E E E E E H
e|---------------|---------------|----------------||---------------------|
B|---------------|---------------|---------------o||---------------------|
G|---------------|---------------|----------------||---------------------|
D|-1-0-1-3-4-3-0-|-1-0-1-3-4-3-0-|-1-0-1-3-4-3-0--||-1-----1-1-1-1-------|
A|-1-0-1-3-4-3-0-|-1-0-1-3-4-3-0-|-1-0-1-3-4-3-0-o||-1-----1-1-1-1-------|
E|-1-0-1-3-4-3-0-|-1-0-1-3-4-3-0-|-1-0-1-3-4-3-0--||-1-----1-1-1-1-------|

   (Dm)
  6/8                        2/4      6/8                     2/4
   Q  E Q  E   Q  E   Q   E   E E Q    Q  E Q  E   Q.   Q.     Q  Q
e|-----------|--------------|--------|-----------|-----------|--------|
B|-----------|--------------|--------|-----------|-----------|--------|
G|-7--7-7--7-|-7--7-/10--10-|-9-9-9--|-7--7-7--7-|-7----5----|-5--5---|
D|-0--0-0--0-|-0--0---0---0-|-0-0-0--|-0--0-0--0-|-0----0----|-0--0---|
A|-----------|--------------|--------|-----------|-----------|--------|
E|-----------|--------------|--------|-----------|-----------|--------|

  6/8                        2/4      6/8                     2/4
   Q  E Q  E   Q  E   Q   E   E E Q    Q  E Q  E   Q.   Q.     Q  Q
e|-----------|--------------|--------|-----------|-----------|--------|
B|-----------|--------------|--------|-----------|-----------|--------|
G|-7--7-7--7-|-7--7-/10--10-|-9-9-9--|-7--7-7--7-|-7----5----|-5--5---|
D|-0--0-0--0-|-0--0---0---0-|-0-0-0--|-0--0-0--0-|-0----0----|-0--0---|
A|-----------|--------------|--------|-----------|-----------|--------|
E|-----------|--------------|--------|-----------|-----------|--------|

  6/8                        2/4      6/8         9/8
   Q  E Q  E   Q  E   Q   E   E E Q    Q  E Q  E   Q.    Q   E  Q.
e|-----------|--------------|--------|-----------|--------------------|
B|-----------|--------------|--------|-----------|--------------------|
G|-7--7-7--7-|-7--7-/10--10-|-9-9-9--|-7--7-7--7-|-7----11--11--0-----|
D|-0--0-0--0-|-0--0---0---0-|-0-0-0--|-0--0-0--0-|-0-----0---0-10-----|
A|-----------|--------------|--------|-----------|-------0---0--0-----|
E|-----------|--------------|--------|-----------|--------------------|

                         H.=H      Q=120
                                   E5
                        2/4       4/4
    Q   E  Q.    Q   E    Q   Q    W          +W
e|---------------------|---------|----------|--------*|
B|---------------------|---------|----------|--------*|
G|-11--11--0----11--11-|--0---0--|----------|--------*|
D|--0---0-10-----0---0-|-10--10--|-2--------|-(2)----*|
A|--0---0--0-----0---0-|--0---0--|-2--------|-(2)----*|
E|---------------------|---------|-2--------|-(2)----*|

************************************

| /    Slide up
| *    Natural harmonic
| (n)  Ghost note

************************************
Suggest correction
comments
print report bad tab
7 comments total. Showing first comments.
-1 reply
browar 1,097 Nov 02, 2007 06:21 AM

Verse riff should be:

|------------|-----
|------------|-----
|-1----------|-1---
|-2--0-1-0-2-|-2---
|-2--0-1-0-2-|-2---
|-2--0-1-0-2-|-2---

+1 reply
shawnithin69 10 Jun 17, 2008 12:25 AM

that doesn't sound right browar, its supposed to have a low feeling

0 reply
we_built_a_tree 50 Jun 23, 2008 04:16 PM

yeah, I think the tabber is right. nice work

guest
You may want to rate the tab now too:
select rating
Wanna post a correction for this tab? Suggest correction