Oops, an error
Loading. Please wait.
We have an official The Pot tab made by UG professional guitarists. Check out the tab »
×
by Tool
19,502 views 147 this week
12 commentsread comments
1 2 3 4 5
x 6
add to favorites
×
Save as Personal and add changes to this tab that will be seen only by you. Learn more ›
×
You can save this tab as Personal to edit and correct it or add notes. All changes will be seen only by you. Learn more »
launch autoscroll
font size
0
reset
how to read this tab
guitar tuner
backing track
0:00
0:00
edit
Autoscroll
slow
fast
+/-
esc
set tempo
stop
Band: Tool
Album: 10,000 Days
Song: The Pot

Tuning: Drop D (D,A,D,G,B,E)

P.M.= .
x\ = pick scrape
* = Pinch Harmonic

0:26-0:37
|------------|
|------------|
|------------|
|------------|
|-(feedback)-|
|------------|

"You must've been...."
|----------------------------------------------|
|----------------------------------------------|
|----------------------------------------------|
|----------------------------------------------|
|-------5----------5------------5---------3-x2-|
|-0--0-----0-0--0-----0-0--0-0----0-0-3h5------|
  .  .     . .  .     . .  . .    . . . .

|----------------|--------|
|----------------|--------|
|----5b---(7)----|--------|
|-------------x4-|--------|
|----------------|-x\-----|
|-0--------------|-x\-----|

1:19 (Not sure if this is guitar)
|-------------16-------------|
|-13---10--------------------|
|----------------------------|
|-------------------------10-|
|----------------------------|
|----------------------------|

1:41 "Kangaroo done..."
|----------------------------------------------|
|----------------------------------------------|
|----------------------------------------------|
|----------------------------------------------|
|-------5----------5------------5---------3-x2-|
|-0--0-----0-0--0-----0-0--0-0----0-0-3h5------|
  .  .     . .  .     . .  . .    . .

Chorus
|-------------------------------------------------|-------------------------------------------|
|-------------------------------------------------|-------------------------------------------|
|-------------------------------------------------|-------------------------------------------|
|-------------------------------------------------|-------------------------------------------|
|-------5----------3---------------10---------5---|-------5----------5------------5---------3-|
|-5--5-----3-3--3-----10-10--10-10----5-5-5-5---7-|-0--0-----0-0--0-----0-0--0-0----0-0-3h5---|
                                      . .           .  .     . .  .     . .  . .    . .

|----------------------------------------------|----------------------------------------------|
|----------------------------------------------|----------------------------------------------|
|----------------------------------------------|----------------------------------------------|
|----------------------------------------------|----------------------------------------------|
|-------5----------3---------------10----------|-------5----------5------------5---------3-x2-|
|-5--5-----3-3--3-----10-10--10-10----1-1--1-1-|-0--0-----0-0--0-----0-0--0-0----0-0-3h5------|
                                                 .  .     . .  .     . .  . .    . .

|----------------|
|----------------|
|----5b---(7)----|
|-------------x2-|
|----------------|
|-0--------------|

2:22 "Who are you..."
|----------------------------------------------|
|----------------------------------------------|
|----------------------------------------------|
|----------------------------------------------|
|-------5----------5------------5---------3-x4-|
|-0--0-----0-0--0-----0-0--0-0----0-0-3h5------|
  .  .     . .  .     . .  . .    . . . .

2:40 "Liar, Lawyer..."
|---------------------------------------------------------|
|---------------------------------------------------------|
|---------------------------------------------------------|
|-10b---------------0----------------10b------------------|
|-10b---------------0-----------x\-10b--------------------|
|-10b---------------0-----------x\-10b--------------------|

|-------------------------------------------|
|-------------------------------------------|
|-------------------------------------------|
|-------------------------------------------|
|-------5----------5------------5---------3-|
|-0--0-----0-0--0-----0-0--0-0----0-0-3h5---|
  .  .     . .  .     . .  . .    . . . .

Chorus
|-------------------------------------------------|-------------------------------------------|
|-------------------------------------------------|-------------------------------------------|
|-------------------------------------------------|-------------------------------------------|
|-------------------------------------------------|-------------------------------------------|
|-------5----------3---------------10---------5---|-------5----------5------------5---------3-|
|-5--5-----3-3--3-----10-10--10-10----5-5-5-5---7-|-0--0-----0-0--0-----0-0--0-0----0-0-3h5---|
                                      . .           .  .     . .  .     . .  . .    . .

|----------------------------------------------|
|----------------------------------------------|
|----------------------------------------------|
|----------------------------------------------|
|-------5----------3---------------10----------|
|-5--5-----3-3--3-----10-10--10-10----1-1--1-1-|

3:11
|------------------------------------------------------------------|
|------------------------------------------------------------------|
|------------------------------------------------------------------|
|-0-0-------------2-2-------------3-3-------------5-5--------------|
|-0-0-------5-----2-2-------5-----3-3-------5-----5-5-------5---x2-|
|-0-0---5h7---7---2-2---5h7---7---3-3---5h7---7---5-5---5h7---7----|

3:24 "So who are you..."
|---------------------------------------------|---------------------------------------------|
|---------------------------------------------|---------------------------------------------|
|---------------------------------------------|---------------------------------------------|
|-0-0--0-0--2-2--0-0--3-3--0-0--5-5-----------|-0-0--0-0--2-2--0-0--3-3--0-0--5-5--8-8--3-3-|
|-0-0--0-0--2-2--0-0--3-3--0-0--5-5-------5---|-0-0--0-0--2-2--0-0--3-3--0-0--5-5--8-8--3-3-|
|-0-0--0-0--2-2--0-0--3-3--0-0--5-5---5h7---7-|-0-0--0-0--2-2--0-0--3-3--0-0--5-5--8-8--3-3-|

Bridge
|--------------------------------------|
|--------------------------------------|
|--------------2---------------2-------|
|--------------------------------------|
|--------0h3h5----5--------0h3----5-x4-|
|-0--0-0------------0--0-0-------------|
  .  . . . . . .  . .  . . . . .  .     

|------------------------------------------------------------------------|
|------------------------------------------------------------------------|
|--------------2---------------5-----------------2-----------------------|
|--------------------------0h3----5------------------------------5-------|
|--------0h3h5----5------------------------0h3h5----5--------0h3----5-x2-|
|-0--0-0------------0--0-0----------0--0-0------------0--0-0-------------|
  .  . . . . . .  . .  . . . . .  . .  . . . . . . . .  . . . . .  .

|--------------------------------------|
|--------------------------------------|
|--------------2---------------2-------|
|--------------------------------------|
|--------0h3h5----5--------0h3----5-x2-|
|-0--0-0------------0--0-0-------------|
  .  . . . . . .  . .  . . . . .  .

4:12 "Weeping shades of indigo..."
|---------------------------------------|---------------------------------|
|---------------------------------------|---------------------------------|
|--------------2------------------------|---------------------------------|
|---------------------------------------|---------------------------------|
|--------0h3h5----5-----8-------7----x2-|-3-----5---------8-------7----x2-|
|-0--0-0-------------8-----8-5-----8----|----0----7-0--8-----8-5-----8----|

4:25
|--------------------------------------------------------------|
|--------------------------------------------------------------|
|--------------------------------------------------------------|
|--------------------------------------------------------------|
|--------------------------------------------------------------|
|-0-10p0-0-12--0-10p0-0-0--0-0-10p0-0-13-0-10p0-0-13-0-10p0-x5-|
  .  . . .  .  .  . . . .  . .  . . .  . .  . . .  . .  . .

4:46
|----------------------------------------------|
|----------------------------------------------|
|----------------------------------------------|
|----------------------------------------------|
|------------------------------------------3h5-|
|-0-0--0-0-0--0-0-0--0-0--0-0-0--0-0-0-3h5-----|
  . .  . . .  . . .  . .  . . .  . . .

|--------------------------------------------------------------|
|--------------------------------------------------------------|
|--------------------------------------------------------------|
|--------------------------------------------------------------|
|---------------3h5----------------------3h5---------------3h5-|
|-0--0-0-0--0-0------0-0--0-0-0--0-0-3h5-----0--0-0-0--0-0-----|
  .  . . .  . . * *  . .  . . .  . .         .  . . .  . .

|-----------------------------------|
|-----------------------------------|
|-----------------------------------|
|-----------------5p3-------------0-|
|-----3-------3h5-----5p3-----3---0-|
|-3h5---5-3h5-------------3h5---5-0-|

5:10
|-------------------------------------------|
|-------------------------------------------|
|-------------------------------------------|
|-------------------------------------------|
|-------5----------5------------5---------3-|
|-0--0-----0-0--0-----0-0--0-0----0-0-3h5---|
  .  .     . .  .     . .  . .    . . . .

5:15 "Kangaroo bestowed..."
|-------------------------------------------------------------|
|-------------------------------------------------------------|
|-------------------------------------------------------------|
|-10b---------------------------------------------------------|
|-10b---------------------5----------5------------5---------3-|
|-10b---------------0--0-----0-0--0-----0-0--0-0----0-0-3h5---|
                    .  .     . .  .     . .  . .    . .

Chorus
|-------------------------------------------------|-------------------------------------------|
|-------------------------------------------------|-------------------------------------------|
|-------------------------------------------------|-------------------------------------------|
|-------------------------------------------------|-------------------------------------------|
|-------5----------3---------------10---------5---|-------5----------5------------5---------3-|
|-5--5-----3-3--3-----10-10--10-10----5-5-5-5---7-|-0--0-----0-0--0-----0-0--0-0----0-0-3h5---|
                                      . .           .  .     . .  .     . .  . .    . .

|----------------------------------------------|
|----------------------------------------------|
|----------------------------------------------|
|----------------------------------------------|
|-------5----------3---------------10----------|
|-5--5-----3-3--3-----10-10--10-10----1-1--1-1-|

5:37
|------------------------------------------------------------------|
|------------------------------------------------------------------|
|------------------------------------------------------------------|
|-0-0-------------2-2-------------3-3-------------5-5--------------|
|-0-0-------5-----2-2-------5-----3-3-------5-----5-5-------5---x2-|
|-0-0---5h7---7---2-2---5h7---7---3-3---5h7---7---5-5---5h7---7----|

5:51
|---------------------------------------------|
|---------------------------------------------|
|---------------------------------------------|
|-0-0--0-0--2-2--0-0--3-3--0-0--5-5--8-8--3-3-|
|-0-0--0-0--2-2--0-0--3-3--0-0--5-5--8-8--3-3-|
|-0-0--0-0--2-2--0-0--3-3--0-0--5-5--8-8--3-3-|

5:59
|--------------------------------------------------------|--------------------------------------------------|
|--------------------------------------------------------|--------------------------------------------------|
|--------------------------------------------------------|--------------------------------------------------|
|--------------------------------------------------------|--------------------------------------------------|
|-5---------3---------5------------3--5-------------6-x2-|-5--------3--------5-----------3--5-------------6-|
|---7-7-0-0---5-5-0-0---7-7-0-0-3-------7-7-0-0-5h7------|----7--0-----5--0-----7--0--3-------7-7-0-0-5h7---|
    . . . .   . . . .   . . . .         . . . .               .  .     .  .     .  .          . . . .

|-----------------------------------------------------|
|-----------------------------------------------------|
|-----------------------------------------------------|
|-----------------------------------------------------|
|-5---------3---------5------------3--5-------------6-|
|---7-7-0-0---5-5-0-0---7-7-0-0-3-------7-7-0-0-5h7---|
    . . . .   . . . .   . . . .         . . . .

There you go. Enjoy!

-Mike Guyer

            
            
Suggest correction
Creating personal tab
Creating personal tab
You can edit any tab online and save it as your Personal.

You can edit, replace or remove any tab part or add personal notes – all changes will be seen only by you.

Personal tabs can be accessed anytime from any device, even offline.
Learn more »
comments
print report bad tab
12 comments total. Showing first comments.
0 reply
LinusX3 21 Jun 09, 2006 01:56 AM

Can't belive why this tab has such a low raiting. It's by far the best one around! 5

0 reply
Dropped D 10 Nov 12, 2006 11:07 AM

Nice try. It's no wonder there are so many bad guitar players out there. How can someone mistake a chord for a single note. And why is this tab have me jumping all over the neck. For instance, on the chorus, this tab has you going from:
a|-------5---------3-----------------10-----
E|--5--5-----3--3------10-10--10-10---------

The note on the 10th fret in E, is the same note as the 3rd fret in A.
Why go all the way to the 10th fret? Its stupid. It will slow your playing down as well as make you play more sloppy buy jumping all over the neck. The whole tab has mistakes like this, not to mention, chords are being played throughout most of it, not single notes. I wish people would figure out the song more before they post a half-assed tab. Sorry if it seems like Im being mean or something, but it just like all the songs tabbed on here are tabbed by unexperienced guitar players. I actually come to this web site to get a good laugh by looking at all of the horribly incorrect tabs.

-1 reply
broken_leg 40 Dec 21, 2006 03:51 PM

where are all the good tabs then fukwit?

guest
Wanna post a correction for this tab? Suggest correction