Oops, an error
Loading. Please wait.

Undertow album tab

version 2
version 2

Album

Whole song

Interactive

by Tool
28,141 views 36 this week
2 commentsread comments
1 2 3 4 5
x 10
add to favorites
×
Save as Personal and add changes to this tab that will be seen only by you. Learn more ›
×
You can save this tab as Personal to edit and correct it or add notes. All changes will be seen only by you. Learn more »
launch autoscroll
font size
0
reset
how to read this tab
guitar tuner
edit
Autoscroll
slow
fast
+/-
esc
set tempo
stop
Difficulty
intermediate
Contents


1. Intolerance
2. Prison Sex
3. Sober
4. Bottom
5. Crawl Away
6. Swamp Song
7. Undertow
8. 4 Degrees
9. Flood


1. Intolerance


0:22

e------------------------------------------|
b------------------------------------------|
g------------------------------------------|
d--0--3--5--6p5-0h1--0--10--3--5--6p5-0h1--| x4
a--0--3--5--6p5-0h1--0--10--3--5--6p5-0h1--|
d--0--3--5--6p5-0h1--0--10--3--5--6p5-0h1--|

e--------------------------------------|
b--------------------------------------|
g--------------------------------------|
d--------------------------------------| x2
a-----------------------------------3--|
d--0--3--0--3--0--1--0--3--0--1--1-----|

e---------------------------------------------------|
b---------------------------------------------------|
g---------------------------------------------------|
d---------------------------------------------------|
a--5---5-6-5----5---5-6-3---5---5-6-5----5---5-6b---|
d----3-------3----3-----------3-------3----3--------|
       ph

e--------------------------------------|
b--------------------------------------|
g--------------------------------------|
d--------------------------------------| x2
a-----------------------------------3--|
d--0--3--0--3--0--1--0--3--0--1--1-----|
  pm - - - - - - - - - - - - - - - - |

e---------------------------------------------------------|
b---------------------------------------------------------|
g---------------------------------------------------------|
d--------------------------------------------------00-00--|
a--------------------------------------------------00-00--|
d--0--0-xxx-x---0--0-xxx-x---0--0-xxx-x---0--0--0--00-00--|

(guitar 1)                       x2
e------------------------------------|------------------------------------------|
b------------------------------------|------------------------------------------|
g------------------------------------|------------------------------------------|
d--10-(1st time only, hold)----------|--10b-12-12-12-12-10b-12-12---------------|
a------------------------------------|--10b-12-12-12-12-10b-12-12---------------|
d------------------------------------|--10b-12-12-12-12-10b-12-12-0-12p0-13-15--|
|                                    |
|(guitar 2)                      x2  |
e------------------------------------|------------------------------------|
b------------------------------------|------------------------------------|
g------------------------------------|------------------------------------|
d--10--0--0--0--0--10--0--0--0--1-3--|--10--0--0--0--0--10--0--0--0--1-3--|
a--10--0--0--0--0--10--0--0--0--1-3--|--10--0--0--0--0--10--0--0--0--1-3--|
d--10--0--0--0--0--10--0--0--0--1-3--|--10--0--0--0--0--10--0--0--0--1-3--|

(guitar 1)
e------------------------------------|
b------------------------------------|
g------------------------------------|
d--10b-12-12-12-12-10b-12-12b--------|
a--10b-12-12-12-12-10b-12-12b--------|
d--10b-12-12-12-12-10b-12-12b--------|
|
|(guitar 2)
e------------------------------------|
b------------------------------------|
g------------------------------------|
d--10--0--0--0--0--10--0--0--0-------|
a--10--0--0--0--0--10--0--0--0-------|
d--10--0--0--0--0--10--0--0--0--1-3--|

e---------------------------------------|
b---------------------------------------|
g---------------------------------------|
d--0--3--0--3--0--1--0--3--0--1--1--10--| x2
a--0--3--0--3--0--1--0--3--0--1--1--10--|
d--0--3--0--3--0--1--0--3--0--1--1--10--|

e-----------------------------------------|
b-----------------------------------------|
g-----------------------------------------|
d-----------------------------------------|
a--12--(hold)-------------*feedback*------|
d-----------------------------------------|

e-----------------------------------------------------------------------------------------|
b-----------------------------------------------------------------------------------------|
g-----------------------------------------------------------------------------------------|
d-----------------------------------------------------------------------------------------|
a-----------------------------------------------------------------------------------------|
d--0-xx-0--0--0--0---0-xx-0--0--0-10h12-10h12---0-xx-0--0--0--0---0-xx-0--0--0-10h12--12--|

*hold and feedback*

(guitar 1, with wah)
e------------------------------------|------------------------------------|
b------------------------------------|--(open wah and close it)-----------|
g--(several high pitched feebacks----|------------------------------------|
d---using wah pedal as a filter)-----|--12--------------------------------|
a------------------------------------|--12------------------(feedback)----|
d------------------------------------|--12--------------------------------|
|                                    |
|(guitar 2)                          |
e------------------------------------|------------------------------------|
b------------------------------------|------------------------------------|
g------------------------------------|------------------------------------|
d--10--0--0--0--0--10--0--0--0--1-3--|--10--0--0--0--0--10--0--0--0--1-3--|
a--10--0--0--0--0--10--0--0--0--1-3--|--10--0--0--0--0--10--0--0--0--1-3--|
d--10--0--0--0--0--10--0--0--0--1-3--|--10--0--0--0--0--10--0--0--0--1-3--|

(guitar 1, with wah closed for treble sound)
e------------------------------------|------------------------------------|
b--15--15-1515-15--15--15-1515-15----|--15--15-1515-15--20--20-2020-20\\--|
g--14--14-1414-14--14--14-1414-14----|--14--14-1414-14--19--19-1919-19\\--|
d--12--12-1212-12--12--12-1212-12----|--12--12-1212-12--17--17-1717-17\\--|
a--12--12-1212-12--12--12-1212-12----|--12--12-1212-12--17--17-1717-17\\--|
d--12--12-1212-12--12--12-1212-12----|--12--12-1212-12--17--17-1717-17\\--|
|                                    |
|(guitar 2)                          |
e------------------------------------|------------------------------------|
b------------------------------------|------------------------------------|
g------------------------------------|------------------------------------|
d--10--0--0--0--0--10--0--0--0--1-3--|--10--0--0--0--0--10--0--0--0--1-3--|
a--10--0--0--0--0--10--0--0--0--1-3--|--10--0--0--0--0--10--0--0--0--1-3--|
d--10--0--0--0--0--10--0--0--0--1-3--|--10--0--0--0--0--10--0--0--0--1-3--|

e----------------------------|
b----------------------------|
g----------------------------|
d-------------------------0--| x3
a--3----3----3---------0--0--|
d----h5---h5---h5-3p0--0--0--|

e-------------------------|
b-------------------------|
g-------------------------|
d-------------------------|
a--3----3----3---------0--|
d----h5---h5---h5-3p0--0--|

e------------------------------------------|
b------------------------------------------|
g------------------------------------------|
d--0--3--5--6p5-0h1--0--10--3--5--6p5-0h1--| x2
a--0--3--5--6p5-0h1--0--10--3--5--6p5-0h1--|
d--0--3--5--6p5-0h1--0--10--3--5--6p5-0h1--|

e-----------------------------------------|
b-----------------------------------------|
g-----------------------------------------|
d-----------------------------------------| x2
a-----3--5--6h5-5h3----5--3--5--6h5-5h3---|
d--0----------------0---------------------|
      ph-|*
                   *1st time only, right channel only

noise interlude

(with some wah effects in there, you figure em out)

e--------------------------------------------------------|
b--------------------------------------------------------|
g--------------------------------------------------------|
d------------------------------------------x\\-----------|
a-----12b--*feeback*-------x\\\\--x/////-----x\\\\-<17>--|
d-0------------------------------------------------------|

e------------------------------------------------|
b------------------------------------------------|
g------------------------------------------------|
d--------x///--x\\\\------x\\\\\\\---0--0--0--0--|
a--x\\\\-------------x\\-------------0--0--0--0--|
d------------------------------------0--0--0--0--|

e------------------------------------|
b------------------------------------|
g------------------------------------|
d--10--0--0--0--0--10--0--0--0--1-3--| x2
a--10--0--0--0--0--10--0--0--0--1-3--|
d--10--0--0--0--0--10--0--0--0--1-3--|

(guitar 1, with wah closed)
e------------------------------------|------------------------------------|
b------------------------------------|------------------------------------|
g------------------------------------|------------------------------------|
d--12----b-----r-----10~-------------|--12---10---------------------------|
a------------------------------------|------------12--10--10h12p10-\\\\\--|
d------------------------------------|------------------------------------|
|                                    |
|(guitar 2)                          |
e------------------------------------|------------------------------------|
b------------------------------------|------------------------------------|
g------------------------------------|------------------------------------|
d--10--0--0--0--0--10--0--0--0--1-3--|--10--0--0--0--0--10--0--0--0--1-3--|
a--10--0--0--0--0--10--0--0--0--1-3--|--10--0--0--0--0--10--0--0--0--1-3--|
d--10--0--0--0--0--10--0--0--0--1-3--|--10--0--0--0--0--10--0--0--0--1-3--|

(guitar 1, with wah closed)
e------------------------------------|------------------------------------|
b------------------------------------|------------------------------------|
g------------------------------------|----------------/-19--(interesting--|
d--12-------------~~~----------------|-----------------------effect here)-|
a------------------------------------|------------------------------------|
d------------------------------------|------------------------------------|
|                                    |
|(guitar 2)                          |
e------------------------------------|------------------------------------|
b------------------------------------|------------------------------------|
g------------------------------------|------------------------------------|
d--10--0--0--0--0--10--0--0--0--1-3--|--10--0--0--0--0--10--0--0--0--1-3--|
a--10--0--0--0--0--10--0--0--0--1-3--|--10--0--0--0--0--10--0--0--0--1-3--|
d--10--0--0--0--0--10--0--0--0--1-3--|--10--0--0--0--0--10--0--0--0--1-3--|

e----------------------------|
b----------------------------|
g----------------------------|
d-------------------------0--| x8
a--3----3----3---------0--0--|
d----h5---h5---h5-3p0--0--0--|

(guitar 1)
e----------------------------|
b-------------------------3--|
g--5p0--5p0--5p0----------2--|
d-----------------3p0--0--0--| x8
a----------------------------|
d----------------------------|
|                           |
|(guitar 2)                 |
e----------------------------|
b----------------------------|
g----------------------------|
d-------------------------0--| x8
a--3----3----3---------0--0--|
d----h5---h5---h5-3p0--0--0--|

e----------------------------------------------------|
b----------------------------------------------------|
g------------------------------16--------------------|
d---------------------------------14-12-14p12--------|
a-----14---------------------14---------------14p12--|
d--14----14-12-14p12-12p10---------------------------|
  ph - - - - - - - - - - - - - - - - - - - - - - - |

e----------------------------------------------------|
b----------------------------------------------------|
g----16----------------------------------------------|
d-------14-12-14p12----------------------------------|
a--14---------------14p12----------------------------|
d---------------------------14----14-12-14p12-12p10--|
  ph - - - - - - - - - - - - - - - - - - - - - - - |

e--------------------------------|
b--------------------------------|
g--------------------------------|
d--0h12--10----------------------| x4
a--0h12--10----------------------|
d--0h12--10--10--12-13p12-12p10--|

e----------------------------------|
b----------------------------------|
g-------------------(with delay)---|
d--12-------(12)-----------/////---|
a--12--(12)----------------/////---|
d--12----------------------/////---|


2. Prison Sex

(distortion)

(with delay)

e------------------------------------------|
b------------------------------------------|
g------------------------------------------|
d-(near bridge)----------------------------|
a------------------------------------------|
b--x\\----x-x\\\--x\\\\-\\-\---x\\-\\\\\\--|

(delay off)

e-----------------------------------------|
b-----------------------------------------|
g-----------------------------------------|
d-----------------------------------------|
a-----------------5h7----------------5h7--|
b--0--xx-00-x--0x------0-x-0-00-xxxx------|

e-----------------------------------------------|
b-----------------------------------------------|
g-----------------------------------------------|
d-----------------------------------------------|
a--------------------5h7--7--7-5--5-2--2-0h2-5--|
b--0-x-0x--00-x-0x-0x---------------------------|

e----------------------|
b----------------------|
g----------------------|
d-----------2----------| x4
a--5--------0-----0h2--|
b-----3--0-----3-------|
      pm-|    pm

e-----------------------|
b-----------------------|
g-----------------------|
d-----------------------| x8
a-----------------------|
b--3--0--0--5--0-x-000--|
  pm - - -  - - - - - |

e----------------------|
b----------------------|
g----------------------|
d----------------------| x4
a-----5---/-12\--------|
b--3----0-/-10\--10-0--|
        pm
                     x4                      x4
e-----------------------|-----------------------|
b-----------------------|-----------------------|
g-----------------------|-----------------------|
d-----------------------|-----------------------|
a-----------------------|-----------7-----------|
b--3--0--0--5--0-x-000--|--3--0--0--5--0-x-000--|
  pm - - -  - - - - - |   pm - - -  - - - - - |

                    x3
e----------------------|----------------|
b----------------------|----------------|
g----------------------|----------------|
d----------------------|----------------|
a-----5---/-12\--------|-----5---/-12\--|
b--3----0-/-10\--10-0--|--3----0-/-10\--|
        pm                     pm

e--------------------------------|
b--------------------------------|
g--------------------------------|
d--------------------------------| x3
a-------12----5----7----7---5----|
b--0--0-10--0-3--0-5--0-5-0-3-0--|

e----------------------------------------|
b----------------------------------------|
g----------------------------------------|
d----------------------------------------|
a--2-2-2--7-7-7--5-5-5--101010--7-7-5-5--|
b--0-0-0--5-5-5--3-3-3--8-8-8---5-5-3-3--|

                    x3
e----------------------|--------------------------|
b----------------------|--------------------------|
g----------------------|--------------------------|
d-----------2----------|-----------9--------------|
a--5--------0-----0h2--|--5--------7--5h7-7p5-2p--|
b-----3--0-----3-------|-----3--0-----------------|
      pm-|    pm             pm-|

                     x4                      x4
e-----------------------|-----------------------|
b-----------------------|-----------------------|
g-----------------------|-----------------------|
d-----------------------|-----------------------|
a-----------------------|-----------7-----------|
b--3--0--0--5--0-x-000--|--3--0--0--5--0-x-000--|
  pm - - -  - - - - - |   pm - - -  - - - - - |

                    x3
e----------------------|----------------|
b----------------------|----------------|
g----------------------|----------------|
d----------------------|----------------|
a-----5---/-12\--------|-----5---/-12\--|
b--3----0-/-10\--10-0--|--3----0-/-10\--|
        pm                     pm

e--------------------------------|
b--------------------------------|
g--------------------------------|
d--------------------------------| x3
a-------12----5----7----7---5----|
b--0--0-10--0-3--0-5--0-5-0-3-0--|

e----------------------------------------|
b----------------------------------------|
g----------------------------------------|
d----------------------------------------| x3
a--2-2-2--7-7-7--5-5-5--101010--7-7-5-5--|
b--0-0-0--5-5-5--3-3-3--8-8-8---5-5-3-3--|

                     x3
e-----------------------|------------------|
b-----------------------|------------------|
g-----------------------|------------------|
d------------------5h7--|--7--5--2--0h2-5--|
a--------------5h7------|------------------|
b--0-xxx-0-xxx----------|------------------|

                                           x3
e----------------------|----------------------|
b----------------------|----------------------|
g----------------------|----------------------|
d----------------------|----------------------|
a--3------/-12\--------|-----5---/-12\--------|
b-----5-0-/-10\--10-0--|--3----0-/-10\--10-0--|
        pm

*let last note ring, rest for 4 bars*

e-----0-----7--------------------|
b--0-----7-----7--5--3------3-0--|
g----------------------2--2------|
d--------------------------------|
a--------------------------------|
b--------------------------------|

e------------------------------------|
b------------------------------------|
g------4------3------2---------------|
d--2h4----2h4----2h4----2h4----------|
a---------------------------2---//9--|
b------------------------------------|

e----------------------------------------------------------------------------|
b-------12-12--12-12--12-12--12-12--12-------11-11--11-11--11-11--11-11--11--|
g--9h11-11-11--11-11--11-11--11-11--11--9h11-11-11--11-11--11-11--11-11--11--|
d----------------------------------------------------------------------------|
a----------------------------------------------------------------------------|
b----------------------------------------------------------------------------|

e------------------------------------------------------------------|
b-------10-10--10-10--10-10--10-10--10-----------------------------|
g--9h11-11-11--11-11--11-11--11-11--11--9h11-----------------------|
d--------------------------------------------9b---9b---9b---9b-\\--|
a------------------------------------------------------------------|
b------------------------------------------------------------------|

e-------------------------------------------|
b-------------------------------------------|
g-------------------------------------------|
d-----4--2-0-----4--2-4-5--4--2-0-----4--5--|
a--2----------2--------------------2--------|
b-------------------------------------------|

e------------------|
b------------------|
g------------------|
d---------------5--| x4
a------------------|
b--0--0-00--000----|
  pm - - - - -|

(guitar 1)              x4                         x4
e--------------------------|--------------------------|
b--------------------------|--------------------------|
g--------------------------|--------------------------|
d--------------------------|--------------------------|
a--------------------------|--5---7---5---12---14-12--|
b--3-0-5-0-3-0-10-0-12-10--|--3-0-5-0-3-0-10-0-12-10--|
|                          |
|(guitar 2)             x4 |                       x4
e--------------------------|--------------------------|
b--3-0-5-0-3-0-10-0-12-10--|--12b-(tremolo pick)------|
g--------------------------|--------------------------|
d--------------------------|--------------------------|
a--------------------------|--------------------------|
b--------------------------|--------------------------|

e----------------|
b----------------|
g----------------|
d--4---x--x-xxx--| x4
a--2---x--x-xxx--|
b--0---x--x-xxx--|

e----------------|
b----------------|
g----------------|
d--4-------------| x4
a--2-------------|
b--0-------------|


3. Sober


(distortion)

*feedback*

(The key here is to bend the shit out the g string, all the way up two semi-tones
 and keep it there. The rythmn here is not exact)

e--------------------------------------------------------------------------|
b--10------10----10----10----10----10--10--10--10--10--10--10--10--10--10--|
g--12b14--(14)--(14)--(14)--(14)--(14)(14)(14)(14)(14)(14)(14)(14)(14)(14)-|
d--------------------------------------------------------------------------|
a--------------------------------------------------------------------------|
d--------------------------------------------------------------------------|

e----------------------------------------------------------|
b--10--10--10--10--10--10--10--10--10--10--10--10--10--10--|
g-(14)(14)(14)(14)(14)(14)(14)(14)(14)(14)(14)(14)(14)(14)-
d----------------------------------------------------------|
a----------------------------------------------------------|
d----------------------------------------------------------|

   (gradual release of the bend)
e-------------------------------------------|
b--10--10--10--10--10--10--10--10--10--10---|
g-(14)(14)(14)(14)(13)(13)(13)(12)(12)(12)--|
d-------------------------------------------|
a-------------------------------------------|
d-------------------------------------------|

e------------------------------------------------------------------|
b------------------------------------------------------------------|
g--14--------------15--------------14--------------15b-------------|
d-------------------------------------------------------(slight----|
a--12--------------13--------------12--------------13b--feedback)--|
d---------------xx--------------xx--------------xx-----------------|

e------------------------------------------------------------------------|
b------------------------------------------------------------------------|
g--14--14--14-14--14-12-12--12-12-12/15--15--15-15--15--12-12--12-12-12--|
d------------------------------------------------------------------------|
a--12--12--12-12--12-10-10--10-10-10/13--13--13-13--13--13-13--13-13-13--|
d------------------------------------------------------------------------|

e------------------------------------------------------------------|
b------------------------------------------------------------------|
g-/14--14--14-14--14-12-12--12-12-12/15--15--15-15--15/17--17--17--|
d------------------------------------------------------------------|
a-/12--12--12-12--12-10-10--10-10-10/13--13--13-13--13/15--15--15--|
d------------------------------------------------------------------|

(clean with flange)

e------------------------------------------------------------------|
b------------------------------------------------------------------|
g--14--------------15--------------14--------------15--------------|
d------------------------------------------------------------------|
a--12--------------13--------------12--------------13--------------|
d------------------------------------------------------------------|

e-----------------------------------------------------------------------|
b-----------------------------------------------------------------------|
g--14--14--14-14--14\12-12--12-12-12/15--15--15-15--15\12-12--12-12-12--|
d--12--12--12-12--12\10-10--10-10-10/13--13--13-13--13\10-10--10-10-10--|
a--12--12--12-12--12\10-10--10-10-10/13--13--13-13--13\10-10--10-10-10--|
d--12--12--12-12--12\10-10--10-10-10/13--13--13-13--13\10-10--10-10-10--|

e------------------------------------------------------------------|
b------------------------------------------------------------------|
g-/14--14--14-14--14\12-12--12-12-12/15--15--15-15--15/17--17--17--|
d-/12--12--12-12--12\10-10--10-10-10/13--13--13-13--13/15--15--15--|
a-/12--12--12-12--12\10-10--10-10-10/13--13--13-13--13/15--15--15--|
d-/12--12--12-12--12\10-10--10-10-10/13--13--13-13--13/15--15--15--|

(distortion, flange off)

e----------------------------------------------------------------------|
b----------------15------------15-------------------16------------16---|
g----------------14------------14-------------------15------------15---|
d--12--12-12-12--12--12-12-12--12-----13--13-13-13--13--13-13-13--13---|
a--12--12-12-12--12--12-12-12--12-----13--13-13-13--13--13-13-13--13---|
d--12--12-12-12--12--12-12-12--12-----13--13-13-13--13--13-13-13--13---|
       pm - - |      pm - - |             pm - - |      pm - - |

e--------------------------------------------------------------------------|
b----------------15------------15-------------------16-16-16-16-16-16-16---|
g----------------14------------14-------------------15-15-15-15-15-15-15---|
d--12--12-12-12--12--12-12-12--12-----13--13-13-13--13-13-13-13-13-13-13---|
a--12--12-12-12--12--12-12-12--12-----13--13-13-13--13-13------------------|
d--12--12-12-12--12--12-12-12--12-----13--13-13-13--13-13------------------|
       pm - - |      pm - - |             pm - - |

e-----------------------------------|
b--------------------4-4-4-4-4-4----|
g--------------------3-3-3-3-3-3----|
d--0--------------1-----------------| x4
a--0--------------1-----------------|
d--0--------------1-----------------|

e---------------------------------------------|
b---------------------------------------------|
g-----------------------------14--------------|
d---------------------------------------------|
a--/-12------xx-13-b-r----12-----xx-13-/-15---|
d---------------------------------------------|

(clean with flange)

e------------------------------------------------------------------|
b------------------------------------------------------------------|
g--14--------------15--------------14--------------15--------------|
d--12--------------13--------------12--------------13--------------|
a--12--------------13--------------12--------------13--------------|
d--12--------------13--------------12--------------13--------------|

e-----------------------------------------------------------------------|
b-----------------------------------------------------------------------|
g--14--14--14-14--14\12-12--12-12-12/15--15--15-15--15\12-12--12-12-12--|
d--12--12--12-12--12\10-10--10-10-10/13--13--13-13--13\10-10--10-10-10--|
a--12--12--12-12--12\10-10--10-10-10/13--13--13-13--13\10-10--10-10-10--|
d--12--12--12-12--12\10-10--10-10-10/13--13--13-13--13\10-10--10-10-10--|

e------------------------------------------------------------------|
b------------------------------------------------------------------|
g-/14--14--14-14--14\12-12--12-12-12/15--15--15-15--15/17--17--17--|
d-/12--12--12-12--12\10-10--10-10-10/13--13--13-13--13/15--15--15--|
a-/12--12--12-12--12\10-10--10-10-10/13--13--13-13--13/15--15--15--|
d-/12--12--12-12--12\10-10--10-10-10/13--13--13-13--13/15--15--15--|

(distortion, flange off)

e----------------------------------------------------------------------|
b----------------15------------15-------------------16------------16---|
g----------------14------------14-------------------15------------15---|
d--12--12-12-12--12--12-12-12--12-----13--13-13-13--13--13-13-13--13---|
a--12--12-12-12--12--12-12-12--12-----13--13-13-13--13--13-13-13--13---|
d--12--12-12-12--12--12-12-12--12-----13--13-13-13--13--13-13-13--13---|
       pm - - |      pm - - |             pm - - |      pm - - |

e--------------------------------------------------------------------------|
b----------------15------------15-------------------16-16-16-16-16-16-16---|
g----------------14------------14-------------------15-15-15-15-15-15-15---|
d--12--12-12-12--12--12-12-12--12-----13--13-13-13--13-13-13-13-13-13-13---|
a--12--12-12-12--12--12-12-12--12-----13--13-13-13--13-13------------------|
d--12--12-12-12--12--12-12-12--12-----13--13-13-13--13-13------------------|
       pm - - |      pm - - |             pm - - |

e-----------------------------------|
b--------------------4-4-4-4-4-4----|
g--------------------3-3-3-3-3-3----|
d--0--------------1-----------------| x4
a--0--------------1-----------------|
d--0--------------1-----------------|

e---------------------------------------|
b--3---///--15----b---(feedback)--------|
g--2---///--14----b---------------------|
d--0------------------------------------|
a--0------------------------------------|
d--0------------------------------------|

*rest for 4 bars*

  (gradual release of pm)
                               x3
e---------------------------------|--------------------17-------|
b---------------------------------|--------------------20b(22)--|
g---------------------------------|-----------------------------|
d--12-12-12-12-12-12-12-12-12-12--|--13-13-----13-13------------|
a--12-12-12-12-12-12-12-12-12-12--|--13-13-----13-13------------|
d--12-12-12-12-12-12-12-12-12-12--|--13-13-----13-13------------|
  pm - - - - - - - - - - - - - -|

e-----------------------------------|
b--------------------4-4-4-4-4-4----|
g--------------------3-3-3-3-3-3----|
d--0--------------1-----------------| x4
a--0--------------1-----------------|
d--0--------------1-----------------|

solo (this is a 'feel' solo, the bends are difficult to write down so
      experiment until you get the right sound)

e---------------------------------------------------------------------|
b--3--3-3--3--3-3--3--3-3-3--4--4--4-4--6-6-4-4--3-----3------3----3--|
g--2--2-2--2--2-2--2--2-2-2--3--3--3-3--5-5-3-3--5b(7)-5b(7)-(7)r5-5--|
d--0------------------------------------------------------------------|
a--0------------------------------------------------------------------|
d--0------------------------------------------------------------------|

e---------------------------------------------------------------------|
b--3--3-3--3--3-3-3--4--4--4-4--6-6-4-4---15------15-------15-----15--|
g--2--2-2--2--2-2-2--3--3--3-3--5-5-3-3---17b(19)-17b(19)-(19)r17-17--|
d---------------------------------------------------------------------|
a---------------------------------------------------------------------|
d---------------------------------------------------------------------|

e-----------------------------------------------------------------------------------|
b--15--15-15--15--15-15-15--16--16--16-16--18-18-16-16--15------15-------15-----15--|
g--14--14-14--14--14-14-14--15--15--15-15--17-17-15-15--17b(19)-17b(19)-(19)r17-17--|
d-----------------------------------------------------------------------------------|
a-----------------------------------------------------------------------------------|
d-----------------------------------------------------------------------------------|

e-------------------------------------------------------|
b--15--15-15--15--15-15-15--16--16--16-16--16-16-16-16--|
g--14--14-14--14--14-14-14--15--15--15-15--15-15-15-15--|
d-------------------------------------------------------|
a-------------------------------------------------------|
d-------------------------------------------------------|

e-----------------------------------------|
b-----------------------------------------|
g-----------------------------------------|
d--12-12---12-12-------13-13---13-13------| x2
a--12-12---12-12-------13-13---13-13------|
d--12-12---12-12-------13-13---13-13------|

e-----------------|
b-----------------|
g-----------------|
d--12-12---0-0----|
a--12-12---0-0----|
d--12-12---0-0----|


4. Bottom


distortion)

e---------------------------------|
b---------------------------------|
g---------------------------------|
d--5--0-2-3p2-3p2--0-2-3p0-3-2-0--| x3
a--5--0-2-3p2-3p2--0-2-3p0-3-2-0--|
d--5--0-2-3p2-3p2--0-2-3p0-3-2-0--|

e---------------------------------|
b---------------------------------|
g---------------------------------|
d--5--0-2-3p2-3p2--0-2-3---3--0---|
a--5--0-2-3p2-3p2--0-2-3---3--0---|
d--5--0-2-3p2-3p2--0-2-3---3--0---|

*hold last note for 4 bars with a bit of feedback at the end*

e--------------------------------|
b--------------------------------|
g--------------------------------|
d--------------------------------| x4
a---------xxxxxx---------xx-3----|
d--0--2-3-xxxxxx--0--2-3-xx---3--|

e--------------------------------|
b--------------------------------|
g--------------------------------|
d--------------------------------| x4
a---------xxxxxx---------xx-3----|
d--0--2-3-xxxxxx--0--2-3-xx---3--|
  pm - - - - - - - - - - - - - |
                                                              x2
e------------------------------|---------------------------------|--------------------------|
b------------------------------|---------------------------------|--------------------------|
g------------------------------|---------------------------------|--------------------------|
d--0-2-3p2-3p2--0-2-3p0-3-2-0--|--5--0-2-3p2-3p2--0-2-3p0-3-2-0--|--5--0-2-3p2-3p2--0-2-3b--|
a--0-2-3p2-3p2--0-2-3p0-3-2-0--|--5--0-2-3p2-3p2--0-2-3p0-3-2-0--|--5--0-2-3p2-3p2--0-2-3b--|
d--0-2-3p2-3p2--0-2-3p0-3-2-0--|--5--0-2-3p2-3p2--0-2-3p0-3-2-0--|--5--0-2-3p2-3p2--0-2-3b--|

e--------------------------------|
b--------------------------------|
g--------------------------------|
d--------------------------------| x4
a---------xxxxxx---------xx-3----|
d--0--2-3-xxxxxx--0--2-3-xx---3--|
  pm - - - - - - - - - - - - - |

e--------------------------------|
b--------------------------------|
g--------------------------------|
d--------------------------------| x4
a---------xxxxxx---------xx-3----|
d--0--2-3-xxxxxx--0--2-3-xx---3--|
  pm - - - - - - - - - - - - - |

e--------------------------------|
b--------------------------------|
g------------------------xx-5----|
d--------------------2-3-xx---3--| x4
a---------xxxxxx-----------------|
d--0--2-3-xxxxxx--0--------------|
  pm - - - - - - - |
                                                              x2
e------------------------------|---------------------------------|-------------------------|
b------------------------------|---------------------------------|-------------------------|
g------------------------------|---------------------------------|-------------------------|
d--0-2-3p2-3p2--0-2-3p0-3-2-0--|--5--0-2-3p2-3p2--0-2-3p0-3-2-0--|--5--0-2-3p2-3p2--0-2-3--|
a--0-2-3p2-3p2--0-2-3p0-3-2-0--|--5--0-2-3p2-3p2--0-2-3p0-3-2-0--|--5--0-2-3p2-3p2--0-2-3--|
d--0-2-3p2-3p2--0-2-3p0-3-2-0--|--5--0-2-3p2-3p2--0-2-3p0-3-2-0--|--5--0-2-3p2-3p2--0-2-3--|

                      x8
e------------------------|------------|
b------------------------|------------|
g------------------------|------------|
d--3-/-10--0--5h6-5--0---|--3--0------|
a--3-/-10--0--5h6-5--0---|--3--0------|
d--3-/-10--0--5h6-5--0---|--3--0------|

*hold note*

e------------------------------------------------15-----b--|
b----------------------------------------------------------|
g--12---(bends, strange flutter effect------12b---\\-------|
d--------more bends, feedback, the works)------------------|
a----------------------------------------------------------|
d----------------------------------------------------------|

e--------------------------------------------------|
b--------------------------------------------------|
g--------------------------------------------------|
d---------------------------------10h12--12b-\\\---|
a-----3-------------------3------------------------|
d--3-----0-------------3-----0---------------------|

e--------------------------|
b--------------------------|
g--------------------------|
d--------------------------| x12
a-----3--------------------|
d--3-----0-----------------|

                      x8
e------------------------|
b--6---13-----8-9-6------|
g--5---12-----7-8-5------|
d--3-/-10--0--5h6-5--0---|
a--3-/-10--0--5h6-5--0---|
d--3-/-10--0--5h6-5--0---|

                     x2
e----------------------|-----------------------|---------------------|
b----------------------|-----------------------|---------------------|
g----------------------|-----------------------|---------------------|
d--------------3-------|-----------------------|---------------------|
a----5----3---------5--|-----5----3----3----5--|-----5----3----3-----|
d-0----3----5----3-----|--0----3----5----3-----|--0----3----5----3b--|
  ph - - - - - - - -|     ph - - - - - - - - |   ph - - - - - - - -|

                                        x3
e------------------|------------------------|
b-------8-9-6------|--6---13-----8-9-6------|
g-------7-8-5------|--5---12-----7-8-5------|
d--0-0--5h6-5--0---|--3-/-10--0--5h6-5--0---|
a--0-0--5h6-5--0---|--3-/-10--0--5h6-5--0---|
d--0-0--5h6-5--0---|--3-/-10--0--5h6-5--0---|

e--------------------|
b-------6----8----6--|
g-------5----7----5--|
d--0--0-3--0-5--0-3--| x8
a--0--0-3--0-5--0-3--|
d--0--0-3--0-5--0-3--|

e--------------------------------------------------------|
b--------------------------------------------------------|
g--------------------------------------------------------|
d--0-1--0-1--0-1--0-1--0-13-13--0-13-13--0-13-13--0-13b--|
a--0-1--0-1--0-1--0-1--0-13-13--0-13-13--0-13-13--0-13b--|
d--0-1--0-1--0-1--0-1--0-13-13--0-13-13--0-13-13--0-13b--|

                                                              x3
e------------------------------|---------------------------------|
b------------------------------|---------------------------------|
g------------------------------|---------------------------------|
d--0-2-3p2-3p2--0-2-3p0-3-2-0--|--5--0-2-3p2-3p2--0-2-3p0-3-2-0--|
a--0-2-3p2-3p2--0-2-3p0-3-2-0--|--5--0-2-3p2-3p2--0-2-3p0-3-2-0--|
d--0-2-3p2-3p2--0-2-3p0-3-2-0--|--5--0-2-3p2-3p2--0-2-3p0-3-2-0--|

speed solo

(with wah closed)

*best of luck everyone, go like a bat outta hell. The lead solo part on the
 album is very muddy at best (most likely double or triple tracked parts).
 This transcription was taken from a live recording*

                      (gradual release)
e-------------------------------------------------------------------------------|
b---------12------12--12--12--12--12--12--12------------------------------------|
g---------14b(15)(15)(15)(15)(15)(14)(14)(14)-14p12-12p10-10h12-10--10----------|
d---------------------------------------------------------------------12-10-12--|
a-------------------------------------------------------------------------------|
d--3b---------------------------------------------------------------------------|

e-----------------------------------------------------------------------------|
b-----------------------------------------------------------------------------|
g-----------------9b-7h9------------------------------------------------------|
d--12h15-12-10-12--------10-8-10p8-10-888-8b(9)r8-8--10-888-------------------|
a-----------------------------------------------------------------------------|
d-----------------------------------------------------------12-10-12b(14)r\\--|

(turn wah off)

e-------------------------------------------------------------------------|
b-------------------------------------------------------------------------|
g-------------------------------------------------------------------------|
d-------------------------------------------------------------------------|
a-------------------------------------------------------------------------|
d--3--3--3-3-3-3-3-3-3-3-3-3-3-3-3-3-3-3-3-3-3-3-3-3-3-3-3-3-3-3-3-3-3-3--|

e-------------------------------|
b-------------------------------|
g-------------------------------|
d--5---0----*slight feedback*---|
a--5---0------------------------|
d--5---0------------------------|

*have neck pickup volume set to 0 and switch guitar on and off*

e-------|
b-------|
g-------|
d--0----|
a--0----|
d--0----|


5. Crawl Away


(distortion)

0:17
                                  x3
e------|-----------------------------|----------------------|
b------|--------------2--------------|--------------2b------|
g------|----------3---------3---3----|----------3-------0---|
d--2---|--2/4-4-4---4---4-4---4---4--|--2/4-4-4---4---------|
a------|-----------------------------|----------------------|
d------|-----------------------------|----------------------|

e|---------------------------------------------------|
b|---------------------------------------------------|
g|*--------------------------------------------------|
d|*-2h4-xx-4-x-4-4-4-4-44--2h4-xx-4-x-4-4/-12-12-12--|
a|--2h4-xx-4-x-4-4-4-4-44--2h4-xx-4-x-4-4/-12-12-12--|
d|--2h4-xx-4-x-4-4-4-4-44--2h4-xx-4-x-4-4/-12-12-12--|

e-------------------------------------------------|
b-------------------------------------------------|
g------------------------------------------------*|
d--2h4-xx-4-x-4-4-4-4-44--2h4-xx-4-x-4-4--10-9-7-*| x2
a--2h4-xx-4-x-4-4-4-4-44--2h4-xx-4-x-4-4--10-9-7--|
d--2h4-xx-4-x-4-4-4-4-44--2h4-xx-4-x-4-4--10-9-7--|

e-------------------------------------------------------|
b-------------------------------------------------------|
g-------------------------------------------------------|
d--14-xx-14-x-14-14-14-14-14--2h4-xx-4-x-4-4/-12-12-12--|
a--14-xx-14-x-14-14-14-14-14--2h4-xx-4-x-4-4/-12-12-12--|
d--14-xx-14-x-14-14-14-14-14--2h4-xx-4-x-4-4/-12-12-12--|

e-------------------------------------------------------|
b-------------------------------------------------------|
g-------------------------------------------------------|
d--14-xx-14-x-14-14-14-14-14--16--16-16--16--16-16b-----|
a--14-xx-14-x-14-14-14-14-14--16--16-16--16--16-16b-----|
d--14-xx-14-x-14-14-14-14-14--16--16-16--16--16-16b-----|

e------------------------------------------------------------------------|
b------------------------------------------------------------------------|
g--------------------------------------------------------------------16--|
d------------------------------------------------------------------------|
a--16-16-16-16-16--16-14---16-16-16-16-16--16-14---14h16-14h16-14-14-----|
d------------------------------------------------------------------------|
                                                                  ph - |

e----------------------|
b----------------------|
g----------------------|
d----------------------|
a--16p14-16------------|
d-----------14-14b-\\--|

*rest*

e-------------------------------------------------------------|
b-------------------------------------------------------------|
g-------------------------------------------------------------|
d--0-10-9-7--2h4-xx-4-x-4-4-4-4-44--2h4-xx-4-x-4-4/-12-12-12--|
a--0-10-9-7--2h4-xx-4-x-4-4-4-4-44--2h4-xx-4-x-4-4/-12-12-12--|
d--0-10-9-7--2h4-xx-4-x-4-4-4-4-44--2h4-xx-4-x-4-4/-12-12-12--|
            pm - - - - - - - - - - - - - - - - - - - - - - -|

e---------------------------------------------------|
b---------------------------------------------------|
g---------------------------------------------------|
d--2h4-xx-4-x-4-4-4-4-44--2h4----------------44444--|
a--2h4-xx-4-x-4-4-4-4-44--2h4--------4444444444444--|
d--2h4-xx-4-x-4-4-4-4-44--2h4-44444444444444444444--|
  pm - - - - - - - - - - - - - - - - - - - - - |

e---------------------------------------------------|
b---------------------------------------------------|
g---------------------------------------------------|
d--2h4-xx-4-x-4-4-4-4-44--2h4-xx-4-x-4-4/-12-12-12--|
a--2h4-xx-4-x-4-4-4-4-44--2h4-xx-4-x-4-4/-12-12-12--|
d--2h4-xx-4-x-4-4-4-4-44--2h4-xx-4-x-4-4/-12-12-12--|

e---------------------------------------------------|
b---------------------------------------------------|
g---------------------------------------------------|
d--2h4-xx-4-x-4-4-4-4-44--2h4-xx-4-x-4-4--0-10-9-7--|
a--2h4-xx-4-x-4-4-4-4-44--2h4-xx-4-x-4-4--0-10-9-7--|
d--2h4-xx-4-x-4-4-4-4-44--2h4-xx-4-x-4-4--0-10-9-7--|

e--------------------------------------------------------------|
b--------------------------<9>---------------------------------|
g-----------------------<9><9><9>------------------------------|
d--4--7--10--9----<9><9><9>---<9>--4--7--10--9--9-9-9-9-9-9-9--| x2
a--4--7--10--9-<9><9><9>-----------4--7--10--9--9-9-9-9-9-9-9--|
d--4--7--10--9-<9>-----------------4--7--10--9--9-9-9-9-9-9-9--|
                                                pm - - - -|

e------------------------------------------------|
b------------------------------------------------|
g------------------------------------------------|
d------------------------------------------------|
a-----------------------------------------5-5-5--|
d--2h4-xx-4-x-4-4-4-4-44--2h4-xx-4-x-4-4---------|
  semi ph - - - - - - - - - - - - - - - - - - -|

e--------------------------------------|
b--------------------------------------|
g--------------------------------6b-\--|
d--4-44-4-44-4-4-4-44-4-44-4-4---------|
a--------------------------------------|
d--------------------------------------|
  ph - - - - - - - - - - - - - - - |

*rest*

e-----------------------------------------------------------|
b-----------------------------------------------------------|
g-----------------------------------------------------------|
d--0-10-9-7-----------------------2h4-----------------4--5--|
a--0-10-9-7---2h4-xx-4-x-4-2--4-x-------2h4-xx-4-x-4--4--5--|
d--0-10-9-7---2h4-xx-4-x-4--------------2h4-xx-4-x-4-----5--|
                           ph - - - -|

e---------------------------------------------------|
b---------------------------------------------------|
g---------------------------------------------------|
d--2h4-xx-4-x-4-4-4-4-44--2h4----------------44444--|
a--2h4-xx-4-x-4-4-4-4-44--2h4--------4444444444444--|
d--2h4-xx-4-x-4-4-4-4-44--2h4-44444444444444444444--|
  pm - - - - - - - - - - - - - - - - - - - - - |

e---------------------------------------------------|
b---------------------------------------------------|
g---------------------------------------------------|
d--2h4-xx-4-x-4-4-4-4-44--2h4-xx-4-x-4-4/-12-12-12--|
a--2h4-xx-4-x-4-4-4-4-44--2h4-xx-4-x-4-4/-12-12-12--|
d--2h4-xx-4-x-4-4-4-4-44--2h4-xx-4-x-4-4/-12-12-12--|

e---------------------------------------------------|
b---------------------------------------------------|
g---------------------------------------------------|
d--2h4-xx-4-x-4-4-4-4-44--2h4-xx-4-x-4-4--0-10-9-7--|
a--2h4-xx-4-x-4-4-4-4-44--2h4-xx-4-x-4-4--0-10-9-7--|
d--2h4-xx-4-x-4-4-4-4-44--2h4-xx-4-x-4-4--0-10-9-7--|

e--------------------------------------------------------------|
b--------------------------<9>---------------------------------|
g-----------------------<9><9><9>------------------------------|
d--4--7--10--9----<9><9><9>---<9>--4--7--10--9--9-9-9-9-9-9-9--| x2
a--4--7--10--9-<9><9><9>-----------4--7--10--9--9-9-9-9-9-9-9--|
d--4--7--10--9-<9>-----------------4--7--10--9--9-9-9-9-9-9-9--|
                                                pm - - - -|

           x3                                                  x4
e---------------|-------------------|-----------------------------|
b---------------|-------------------|-----------------------------|
g---------------|-------------------|-----------------------------|
d--2-5-5-2-4----|--2-5-5-2-4--------|--2-5-5-2-4-xxx-4-xxx-4-xxx--|
a--2-5-5-2-4----|--2-5-5-2-4--------|--2-5-5-2-4-xxx-4-xxx-4-xxx--|
d--2-5-5-2-4----|--2-5-5-2-4--x\\\--|--2-5-5-2-4-xxx-4-xxx-4-xxx--|

**
(all tremolo picking)

e------------------------------------------------------------|
b------------------------------------------------------------|
g------------------------------------------------------------|
d------------------------------------------------------------|
a------------------------------------------------------------|
d--2-5--4----------//-16----------------4--11--12--9--11--2--|
   pm - - - - - - - - - - (let off pm)
**

e----------------------------------------------------|
b----------------------------------------------------|
g----------------------------------------------------|
d----------------------------------------------------|
a----------------------------------------------------|
d--2-4b-2-4b-2-/-16b---(hold and slight feedback)-b--|

e-------------------------------------------------------------|
b-------------------------------------------------------------|
g-------------------------------------------------------------|
d--14-xx-14-x-14-14-14-14-14--16--16-16--16-16-16--16b-16-16--|
a--14-xx-14-x-14-14-14-14-14--16--16-16--16-16-16--16b-16-16--|
d--14-xx-14-x-14-14-14-14-14--16--16-16--16-16-16--16b-16-16--|

e-------------------------------------------------------|
b-------------------------------------------------------|
g-------------------------------------------------------|
d--14-xx-14-x-14-14-14-14-14----------------------------|
a--14-xx-14-x-14-14-14-14-14----------------------------|
d--14-xx-14-x-14-14-14-14-14--16-14h16-14h16-14h16b-----|

*hold and feedback*

e---------------------------------------------------|
b---------------------------------------------------|
g---------------------------------------------------|
d--2h4-xx-4-x-4-4-4-4-44--2h4-xx-4-x-4-4/-12-12-12--|
a--2h4-xx-4-x-4-4-4-4-44--2h4-xx-4-x-4-4/-12-12-12--|
d--2h4-xx-4-x-4-4-4-4-44--2h4-xx-4-x-4-4/-12-12-12--|
  pm - - - - - - - - - - - - - - - - - - |

e---------------------------------------------------|
b---------------------------------------------------|
g---------------------------------------------------|
d--2h4-xx-4-x-4-4-4-4-44--2h4----------------44444--|
a--2h4-xx-4-x-4-4-4-4-44--2h4--------4444444444444--|
d--2h4-xx-4-x-4-4-4-4-44--2h4-44444444444444444444--|
  pm - - - - - - - - - - - - - - - - - - - - - |

e---------------------------------------------------|
b---------------------------------------------------|
g---------------------------------------------------|
d--2h4-xx-4-x-4-4-4-4-44--2h4-xx-4-x-4-4/-12-12-12--|
a--2h4-xx-4-x-4-4-4-4-44--2h4-xx-4-x-4-4/-12-12-12--|
d--2h4-xx-4-x-4-4-4-4-44--2h4-xx-4-x-4-4/-12-12-12--|

e---------------------------------------------------|
b---------------------------------------------------|
g---------------------------------------------------|
d--2h4-xx-4-x-4-4-4-4-44--2h4-xx-4-x-4-4--0-10-9-7--|
a--2h4-xx-4-x-4-4-4-4-44--2h4-xx-4-x-4-4--0-10-9-7--|
d--2h4-xx-4-x-4-4-4-4-44--2h4-xx-4-x-4-4--0-10-9-7--|

e--------------------------------------------------------------|
b--------------------------<9>---------------------------------|
g-----------------------<9><9><9>------------------------------|
d--4--7--10--9----<9><9><9>---<9>--4--7--10--9--9-9-9-9-9-9-9--| x2
a--4--7--10--9-<9><9><9>-----------4--7--10--9--9-9-9-9-9-9-9--|
d--4--7--10--9-<9>-----------------4--7--10--9--9-9-9-9-9-9-9--|
                                                pm - - - -|
e---------------|
b---------------|
g---------------|
d--2-5-5-2-4----|
a--2-5-5-2-4----|
d--2-5-5-2-4----|

6. Swamp Song


(distortion)

*rest for 2 bars*

e---------------------------|
b---------------------------|
g---------------------------|
d---------------------------| x4
a----5-----5-----3-----3h5--|
d--0---3-0---3-0---5-0------|
  pm   pm-   pm-   pm-

                      x3
e------------------------|------------------------|
b------------------------|------------------------|
g------------------------|-------------------5----|
d------------------------|------------------------|
a-------------------3h5--|---------------------5--|
d--0--3-0--0--<3>-x------|--0--3-0--0--<3>-x------|
   pm - - -|                pm - - -|        ph-

e--------------------------------------------------|
b--------------------------------------------------|
g--------------------------------------------------|
d--------------------------------------------------|
a----------5-----5-----3h5------5-----5--5---3h5---|
d--x-0-x-0---x-0---x-0------x-0---x-0------0-------|
   pm - -|   pm-   pm-      pm-   pm---------------|     pm

e---------------------------------------------------|
b---------------------------------------------------|
g---------------------------------------------------|
d----0-3-0-0-3-0---5-0-3-5--0-0-3-0-0-3-0---5-0-3-5-|
a--0-------------3------------------------3---------|
d---------------------------------------------------|
  slight pm - - - - - gradually let off pm
                                                             x3
e-------------------------------|-------------------------------|---------------|
b-------------------------------|-------------------------------|---------------|
g-------------------------------|-------------------------------|---------------|
d--5-3-5-0-3-5-0-3-5-0-3-0-3-5--|--0-3-5-0-3-5-0-3-5-0-3-0-3-5--|--5-3-3--5--3--|
a--5-3-5-0-3-5-0-3-5-0-3-0-3-5--|--0-3-5-0-3-5-0-3-5-0-3-0-3-5--|--5-3-3--5--3--|
d--5-3-5-0-3-5-0-3-5-0-3-0-3-5--|--0-3-5-0-3-5-0-3-5-0-3-0-3-5--|--5-3-3--5--3--|

                         x3
e---------------------------|-----------------------|
b---------------------------|-----------------------|
g---------------------------|-----------------------|
d---------------------------|-----------------------|
a----5-----5-----3-----3h5--|----5-----5-----5b-----|
d--0---3-0---3-0---5-0------|--0---3-0---3-0--------|
  pm   pm-   pm-   pm-        pm   pm-   pm-

e------------------------|
b------------------------|
g------------------------|
d------------------------| x4
a-------------------3h5--|
d--0--3-0--0--<3>-x------|
   pm - - -|

e--------------------------------------------------|
b--------------------------------------------------|
g--------------------------------------------------|
d--------------------------------------------------|
a----------5-----5-----3h5------5-----5--5---3h5---|
d--x-0-x-0---x-0---x-0------x-0---x-0------0-------|
   pm - -|   pm-   pm-      pm-   pm---------------|     pm

e---------------------------------------------------|
b---------------------------------------------------|
g---------------------------------------------------|
d----0-3-0-0-3-0---5-0-3-5--0-0-3-0-0-3-0---5-0-3-5-|
a--0-------------3------------------------3---------|
d---------------------------------------------------|
  slight pm - - - - - gradually let off pm
                                                             x3
e-------------------------------|-------------------------------|--------------|
b-------------------------------|-------------------------------|--------------|
g-------------------------------|-------------------------------|--------------|
d--5-3-5-0-3-5-0-3-5-0-3-0-3-5--|--0-3-5-0-3-5-0-3-5-0-3-0-3-5--|--5-3-3-5--3--|
a--5-3-5-0-3-5-0-3-5-0-3-0-3-5--|--0-3-5-0-3-5-0-3-5-0-3-0-3-5--|--5-3-3-5--3--|
d--5-3-5-0-3-5-0-3-5-0-3-0-3-5--|--0-3-5-0-3-5-0-3-5-0-3-0-3-5--|--5-3-3-5--3--|

solo

(with slide)

*this is an improv solo with a slide, have fun and experiment with it.
 another note: the left and right channels on the cd have two different
 solo parts, you might want to listen to each channel seperatly to get
 a different feel for the picking and positioning of the slide*

e-------------------------------(adlib picking on high--|
b--------------------------------e and b strings with---|
g--12--//////////----------------slide between bridge---|
d--12--//////////-(near bridge---and neck pickups)------|
a--12--//////////----pickup)----------------------------|
d--12--//////////---------------------------------------|

(no slide)

e-----------------------------------------------|
b--3----------3----------3----------3-----------|
g--2----------2----------2----------2-----------|
d--0----------0----------0----------0-----------|
a--0----------0----------0----------0------3h5--|
d--0----------0----------0----------0-----------|

e--------------------------------------------------|
b--------------------------------------------------|
g--------------------------------------------------|
d--------------------------------------------------|
a----------5-----5-----3h5------5-----5--5---3h5---|
d--x-0-x-0---x-0---x-0------x-0---x-0------0-------|
   pm - -|   pm-   pm-      pm-   pm---------------|     pm

e---------------------------------------------------|
b---------------------------------------------------|
g---------------------------------------------------|
d----0-3-0-0-3-0---5-0-3-5--0-0-3-0-0-3-0---5-0-3-5-|
a--0-------------3------------------------3---------|
d---------------------------------------------------|
  slight pm - - - - - gradually let off pm
                                                             x3
e-------------------------------|-------------------------------|
b-------------------------------|-------------------------------|
g-------------------------------|-------------------------------|
d--5-3-5-0-3-5-0-3-5-0-3-0-3-5--|--0-3-5-0-3-5-0-3-5-0-3-0-3-5--|
a--5-3-5-0-3-5-0-3-5-0-3-0-3-5--|--0-3-5-0-3-5-0-3-5-0-3-0-3-5--|
d--5-3-5-0-3-5-0-3-5-0-3-0-3-5--|--0-3-5-0-3-5-0-3-5-0-3-0-3-5--|

          x3                      x2
e------------|----------|------------|-----------------|
b------------|----------|------------|-----------------|
g------------|----------|------------|-----------------|
d--5-3-3-5---|--3--3-5--|--5-3-3-5---|--5-3-3-5--3--0--|
a--5-3-3-5---|--3--3-5--|--5-3-3-5---|--5-3-3-5--3--0--|
d--5-3-3-5---|--3--3-5--|--5-3-3-5---|--5-3-3-5--3--0--|

e----------------------------------------------|
b----------------------------------------------|
g----------------------------------------------|
d--12--0--0--0-10--0--0-0-0-2-2-2-3-5--0-------|
a--12--0--0--0-10--0--0-0-0-2-2-2-3-5--0-------|
d--12--0--0--0-10--0--0-0-0-2-2-2-3-5--0-------|
       pm-            pm-     pm-

             x7
e---------------|---------------|
b---------------|---------------|
g---------------|---------------|
d--7-9-----5----|--7-9-----5----|
a------7-0---7--|------7-0---7--|
d---------------|---------------|
   pm - - - -|     pm - -|

             x8              x4
e---------------|---------------|
b---------------|---------------|
g---------------|---------------|
d----7-----5----|--0------------|
a--0---5-7---7--|--0--5-0-0-7---|
d---------------|--0------------|
   pm - - - -|

             x7                              x4
e---------------|---------------|---------------|
b---------------|---------------|---------------|
g---------------|---------------|---------------|
d----7-----5----|----7-----5----|--0------------| (x2)
a--0---5-7---7--|--0---5-7---7--|--0--5-0-0-7---|
d---------------|---------------|--0------------|
   pm - - - -|

second solo

(with wah)

*adlib slightly with the wah, there's some holds and flutters in there. The
written rythmn is not exact. This another one of Adam's 'feel' solos.*

e--------------------------------------------------|
b--3--3--3--3-3-3--3---15--15-15--15-15--15-15-15--|
g--2--2--2--2-2-2--2-/-14--14-14--14-14--14-14-14--|
d--0--0--0--0-0-0--0-------------------------------|
a--0-----------------------------------------------|
d--0-----------------------------------------------|

e---------------------------------------------------------------------------|
b--15-------15--15--15--15--15--15--15--15--15--15--15--15--15--15--15--15--|
g--17b(19)-(19)(19)(19)(19)(19)(19)(19)(19)(19)(19)(19)(19)(19)(19)(19)r17--|
d---------------------------------------------------------------------------|
a---------------------------------------------------------------------------|
d---------------------------------------------------------------------------|

e----------------------------------------------------------------------------|
b--\10-------10--10--10--10--10--10--10--10--10--10--10--10--10--10--10--10--|
g--\12b(14)-(14)(14)(14)(14)(14)(14)(14)(14)(14)(14)(14)(14)(14)(14)(14)r12--|
d----------------------------------------------------------------------------|
a----------------------------------------------------------------------------|
d----------------------------------------------------------------------------|

e----------------------------------------------------------|
b--\5------5--5--5--5--5--5--5--5--5--5--5--5--5--5--5--5--|
g--\7b(9)-(9)(9)(9)(9)(9)(9)(9)(9)(9)(9)(9)(9)(9)(9)(9)r7--|
d----------------------------------------------------------|
a----------------------------------------------------------|
d----------------------------------------------------------|

e------------------------------------------------------|
b--5-5-555-5-5-555-5/15-15-151515-15-15-151515-15------|
g--7-7-777-7-7-777-7/17-17-171717-17-17-171717-17b-----|
d------------------------------------------------------|
a------------------------------------------------------|
d------------------------------------------------------|

(wah pedal off)
                                   x3
e-------------------------------------|----------------------------------|
b-------------------------------------|----------------------------------|
g-------------------------------------|----------------------------------|
d--0-12-15-0-12-15-0-12-15-0--10--10--|--0-12-15-0-12-15-0-12-15-0--5b---|
a--0-12-15-0-12-15-0-12-15-0--10--10--|--0-12-15-0-12-15-0-12-15-0--5b---|
d--0-12-15-0-12-15-0-12-15-0--10--10--|--0-12-15-0-12-15-0-12-15-0--5b---|

*feedback*

                         x3
e---------------------------|---------------------------|
b---------------------------|---------------------------|
g---------------------------|---------------------------|
d---------------------------|---------------------------|
a----5-----5-----3-----3h5--|----5-----5-----3-----3h5--|
d--0---3-0---3-0---5-0------|--0---3-0---3-0---5-0------|
  pm   pm-   pm-   pm-----------------------------------|        pm   pm-   pm-   pm- *ph*

e--------------------------------------------------|
b--------------------------------------------------|
g--------------------------------------------------|
d--------------------------------------------------|
a----------5-----5-----3h5------5-----5--5---3h5---|
d--x-0-x-0---x-0---x-0------x-0---x-0------0-------|
   pm - -|   pm-   pm-      pm-   pm---------------|     pm

e--------------------------------------------------|
b--------------------------------------------------|
g--------------------------------------------------|
d----0-3-0-0-3-0-5-0-3-5--0-0-3-0-0-3-0-0-5-0-3-5--|
a--0-----------------------------------------------|
d--------------------------------------------------|
  slight pm - - - - - gradually let off pm
                                                             x3
e-------------------------------|-------------------------------|
b-------------------------------|-------------------------------|
g-------------------------------|-------------------------------|
d--5-3-5-0-3-5-0-3-5-0-3-0-3-5--|--0-3-5-0-3-5-0-3-5-0-3-0-3-5--|
a--5-3-5-0-3-5-0-3-5-0-3-0-3-5--|--0-3-5-0-3-5-0-3-5-0-3-0-3-5--|
d--5-3-5-0-3-5-0-3-5-0-3-0-3-5--|--0-3-5-0-3-5-0-3-5-0-3-0-3-5--|

          x3                      x2
e------------|----------|------------|----------------|
b------------|----------|------------|----------------|
g------------|----------|------------|----------------|
d--5-3-3-5---|--3--3-5--|--5-3-3-5---|--5-3-3--5--3b--|
a--5-3-3-5---|--3--3-5--|--5-3-3-5---|--5-3-3--5--3b--|
d--5-3-3-5---|--3--3-5--|--5-3-3-5---|--5-3-3--5--3b--|

*feedback*

*bring volume down*

*feedback and bring volume up*


7. Undertow


(distortion)

               x4                x8
e-----------------|-----------------|
b-----------------|-----------------|
g-----------------|-----------------|
d--5h7-7/10-0-00--|--5h7-7/10-0-00--|
a-----------------|--5h7-7/10-0-00--|
d-----------------|--5h7-7/10-0-00--|
                                pm

                          x2
e----------------------------|--------------------------------------------------|
b----------------------------|--------------------------------------------------|
g----------------------------|--------------------------------------------------|
d----------------------------|---------------------------------------13--12-----|
a----------------------------|--------10---13--12---------5h7-7-10-x-13--12-----|
d--5h7-7-10-x-13--12-----xx--|--5h7-7-10-x-13--12-----xx--5h7-7-10-x-13--12-----|

                       x4
e-------------------------|-------|
b--------2----5----7------|-------|
g------2----5----7--------|-------|
d--0-0--------------------|-------|
a-------------------------|-------|
d-------------------------|--\\\--|

                         x4                          x3
e---------------------------|---------------------------|-------------------------|
b---------------------------|---------------------------|-------------------------|
g---------------------------|---------------------------|-------------------------|
d--------2-2----------------|--2-22-14-14-10-10-7--777--|--2-22-14-14-10-10-5--5--|
a-------------3-3--0-000----|--2-22-14-14-10-10-7--777--|--2-22-14-14-10-10-5--5--|
d--2~-22--------------------|--2-22-14-14-10-10-7--777--|--2-22-14-14-10-10-5--5--|
                                 pm

e------------------------------------------------------------|
b------------------------------------------------------------|
g------------------------------------------------------------|
d------------------------------------------------------------|
a--5-3-0-2-1-0-5-3-0-1-0-6-0--5-3-0-2-1-0-5-3-0-1-0-3-0-6-0--|
d--5-3-0-2-1-0-5-3-0-1-0-6-0--5-3-0-2-1-0-5-3-0-1-0-3-0-6-0--|
  pm - - - - - - - - - - - - - - - - - - - - - - - - - - - |

e-------------------------------------------------------------------|
b-------------------------------------------------------------------|
g-------------------------------------------------------------------|
d-------------------------------------------------------6--8--3--0--|
a--5-3-0-2-1-0-5-3-0-1-0-6-0--5-3-0-2-1-0-5-3-0-1-0-3-0-6--8--3--0--|
d--5-3-0-2-1-0-5-3-0-1-0-6-0--5-3-0-2-1-0-5-3-0-1-0-3-0-6--8--3--0--|
  pm - - - - - - - - - - - - - - - - - - - - - - - - -|

               x4                x8
e-----------------|-----------------|
b-----------------|-----------------|
g-----------------|-----------------|
d--5h7-7/10-0-00--|--5h7-7/10-0-00--|
a-----------------|--5h7-7/10-0-00--|
d-----------------|--5h7-7/10-0-00--|
                                pm

e------------------------------------------------------|
b------------------------------------------------------|
g------------------------------------------------------|
d------------------------------------------------------|
a------------------------------------------------------|
d--5h7-7-10-x-13--12-----xx--5h7-7-10-x-13--16-----xx--|
                                        ph - -|

e--------------------------------------------------|
b--------------------------------------------------|
g--------------------------------------------------|
d---------------------------------------13--12-----|
a--------10---13--12---------5h7-7-10-x-13--12-----|
d--5h7-7-10-x-13--12-----xx--5h7-7-10-x-13--12-----|

                       x4
e-------------------------|-------|
b--------2----5----7------|-------|
g------2----5----7--------|-------|
d--0-0--------------------|-------|
a-------------------------|-------|
d-------------------------|--\\\--|

                         x4                          x4
e---------------------------|---------------------------|
b---------------------------|---------------------------|
g---------------------------|---------------------------|
d--------2-2----------------|--2-22-14-14-10-10-7--777--|
a-------------3-3--0-000----|--2-22-14-14-10-10-7--777--|
d--2~-22--------------------|--2-22-14-14-10-10-7--777--|
                                 pm

                          x3
e----------------------------|-------------------------|
b--5-55-17-17-13-13-10-1010--|--5-55-17-17-13-13-8--8--|
g--4-44-16-16-12-12-9--999---|--4-44-16-16-12-12-7--7--|
d--2-22-14-14-10-10-7--777---|--2-22-14-14-10-10-5--5--|
a--2-22-14-14-10-10-7--777---|--2-22-14-14-10-10-5--5--|
d--2-22-14-14-10-10-7--777---|--2-22-14-14-10-10-5--5--|

e------------------------------------------------------------|
b------------------------------------------------------------|
g------------------------------------------------------------|
d--5-3-0-2-1-0-5-3-0-1-0-6-0--5-3-0-2-1-0-5-3-0-1-0-3-0-6-0--| x2
a--5-3-0-2-1-0-5-3-0-1-0-6-0--5-3-0-2-1-0-5-3-0-1-0-3-0-6-0--|
d--5-3-0-2-1-0-5-3-0-1-0-6-0--5-3-0-2-1-0-5-3-0-1-0-3-0-6-0--|

e------------------------------------------------------------|
b------------------------------------------------------------|
g------------------------------------------------------------|
d------------------------------------------------------------| x2
a--5-3-0-2-1-0-5-3-0-1-0-6-0--5-3-0-2-1-0-5-3-0-1-0-3-0-6-0--|
d--5-3-0-2-1-0-5-3-0-1-0-6-0--5-3-0-2-1-0-5-3-0-1-0-3-0-6-0--|
  pm - - - - - - - - - - - - - - - - - - - - - - - - - - - |

e------------------------------------------------------------------|
b------------------------------------------------------------------|
g------------------------------------------------------------------|
d------------------------------------------------------------------|
a--5-3-0-2-1-0-5-3-0-1-0-6-0--5-3-0-2-1-0-5-3-0-1-----3-----6------|
d--5-3-0-2-1-0-5-3-0-1-0-6-0--5-3-0-2-1-0-5-3-0-1-000-3-000-6-000--|
  pm - - - - - - - - - - - - - - - - - - - - - - - - - - - - - - |

e-----------------------------|
b-----------------------------|
g-----------------------------|
d-----------------------------|
a--5-3-0-2-1-0-5-3-0-1-0-6-0--|
d--5-3-0-2-1-0-5-3-0-1-0-6-0--|
  pm - - - - - - - - - - - -|

e----------------------------------------------------------|
b----------------------------------------------------------|
g----------------------------------------------------------|
d----------------------------------------------------------|
a--5-3-0-2-1-0-5-3-0-1--0--3--0--6--0--7--0--10--0--11--0--|
d--5-3-0-2-1-0-5-3-0-1--0--3--0--6--0--7--0--10--0--11--0--|
  pm - - - - - - - - - - - - - - - - - - - - - - - - - - |

e------------------------------------------------|
b------------------------------------------------|
g------------------------------------------------|
d--------------------------------xx--x-xx--<12>--|
a--------------------------------xx--x-xx--<12>--|
d--12-15--0--0--5-8--0--3--3--0--xx--x-xx--<12>--|
          pm-|      pm

e------------------------------------|
b------------------------------------|
g------------------------------------|
d-----------------------------0---3--|
a-----------------------------0---3--|
d--12-15--x--0--5-6-5--0x-----0---3--|
            pm

e------------------------------------------------------------------------|
b------------------------------------------------------------------------|
g------------------------------------------------------------------------|
d--12-15--0--0--5-8--0--3--3---0------12-15--0--0--5-6--0--3--3---0------|
a--12-15--0--0--5-8--0--3--3---0------12-15--0--0--5-6--0--3--3---0------|
d--12-15--0--0--5-8--0--3--3---0------12-15--0--0--5-6--0--3--3---0------|

e------------------------------------------------------------------------|
b------------------------------------------------------------------------|
g------------------------------------------------------------------------|
d--12-15--0--0--5-8--0--3--3---0------12-15--0--0--5-6-5--0---3---6------|
a--12-15--0--0--5-8--0--3--3---0------12-15--0--0--5-6-5--0---3---6------|
d--12-15--0--0--5-8--0--3--3---0------12-15--0--0--5-6-5--0---3---6------|

e------------------------------------------------------------------------|
b------------------------------------------------------------------------|
g------------------------------------------------------------------------|
d--12-15--0--0--5-8--0--3--3---0------12-15--0--0--5-6--0--3--3---0------|
a--12-15--0--0--5-8--0--3--3---0------12-15--0--0--5-6--0--3--3---0------|
d--12-15--0--0--5-8--0--3--3---0------12-15--0--0--5-6--0--3--3---0------|

e--------------------------------------------------------------|
b--------------------------------------------------------------|
g--------------------------------------------------------------|
d--12-15--0--0--5-8--0--3--3---0-xx-x-xxx--12-15--0--0--5-6-5--|
a--12-15--0--0--5-8--0--3--3---0-xx-x-xxx--12-15--0--0--5-6-5--|
d--12-15--0--0--5-8--0--3--3---0-xx-x-xxx--12-15--0--0--5-6-5--|

                                 x3
e-----------------------------------|---------------------------|
b-----------------------------------|---------------------------|
g-----------------------------------|---------------------------|
d--0---3---6---7---10---11---12-15--|--0---3---6---7---10---11--|
a--0---3---6---7---10---11---12-15--|--0---3---6---7---10---11--|
d--0---3---6---7---10---11---12-15--|--0---3---6---7---10---11--|

                                                                   x7
e---------------------------------|-----------------------------------|
b---------------------------------|-----------------------------------|
g---------------------------------|-----------------------------------|
d----------------0-12-15----------|------------------0-12-15----------|
a--------0-12-15---------0-12-15--|----------0-12-15---------0-12-15--|
d--12-15--------------------------|--0-12-15--------------------------|

(faster pace with hammer ons)
e--------------------------------|
b--------------------------------|
g--------------------------------|
d------------------0-0h3---------| x2
a----------0-0h3---------0-3h3---|
d--0-0h3-------------------------|
                       x3
e-------------------------|-------------------|
b-------------------------|-------------------|
g-------------------------|-------------------|
d--5-3-0-2-1-0-5-3-0-2-1--|--5-3-0-2-1-5-3-0--|
a--5-3-0-2-1-0-5-3-0-2-1--|--5-3-0-2-1-5-3-0--|
d--5-3-0-2-1-0-5-3-0-2-1--|--5-3-0-2-1-5-3-0--|

8. 4 Degrees


clean)
                                                       x3
e---------------------------|-----------------------------|
b--5--5-5-5--5-5-5-6-5-5-5--|--5(5)-5-5-5--5-5-5-6-5-5-5--|
g--4--4-4-4--4-4-4-5-4-4-4--|--4(4)-4-4-4--4-4-4-5-4-4-4--|
d--2------2--------3--------|--0h2------2--------3--------|
a---------------------------|-----------------------------|
d---------------------------|-----------------------------|

e--------------------------------------------------------------------------|
b--10-1010-8-/-13-x-8--8-8-x-6--6-6--6-66-/-10-1010-8-/-13-x-8--8-8-x-6----|
g--9--9-9--7-/-12-x-7--7-7-x-5--5-5--5-55-/-9--9-9--7-/-12-x-7--7-7-x-5----|
d--7--7-7--5-/-10-x-5--5-5-x-3--3-3--3-33-/-7--7-7--5-/-10-x-5--5-5-x-3----|
a--------------------------------------------------------------------------|
d--------------------------------------------------------------------------|

(distortion)

e---------------------------------------------|
b---------------------------------------------|
g---------------------------------------------|
d----------------------------------------3----| x2
a--0h2-x-x-0h2-xxx-33-0--0h2-x-x-0h2-xxx-3----|
d--0h2-x-x-0h2-xxx-33-0--0h2-x-x-0h2-xxx-3----|
                   pm-|

                      x3
e------------------------|-------------------------------|
b------------------------|-------------------------------|
g------------------------|-------------------------------|
d------------------------|-------------------------------|
a------------------------|-------------------------------|
d--0h2-x-x-0h2-xxx-33-0--|--0h2-x-x-0h2-2-x-2-/-10-b-----|
  pm - - - - - - - - - |   pm - - - - |

e---------------------------------------------|
b---------------------------------------------|
g---------------------------------------------|
d----------------------------------------3----| x2
a--0h2-x-x-0h2-xxx-33-0--0h2-x-x-0h2-xxx-3----|
d--0h2-x-x-0h2-xxx-33-0--0h2-x-x-0h2-xxx-3----|
                   pm-|

                      x3
e------------------------|----------------------------------|
b------------------------|----------------------------------|
g------------------------|----------------------------------|
d------------------------|----------------------------------|
a------------------------|----------------------------------|
d--0h2-x-x-0h2-xxx-33-0--|--0h2-x-x-0h2-2-x-0h2p0-3p0-2p0---|
  pm - - - - - - - - - |   pm - - - - | ph - - - - - - - |

                         x3
e---------------------------|--------------------|
b------55-5-----------------|------55-5-5-5-5-/--|
g------44-4-----------------|------44-4-4-4-4-/--|
d--0h2-22-2-----------------|--0h2-22-2-2-2-2-/--|
a--0h2-22-2-----------------|--0h2-22-2-2-2-2-/--|
d--0h2-22-2--0h2p0-3p0-2p0--|--0h2-22-2-2-2-2-/--|
            ph - - - - - -|

e------------------------------------------|
b--10-1010-8-/-13-x-8--8-8-x-6--6-6--6-66--|
g--9--9-9--7-/-12-x-7--7-7-x-5--5-5--5-55--|
d--7--7-7--5-/-10-x-5--5-5-x-3--3-3--3-33--| x3
a--7--7-7--5-/-10-x-5--5-5-x-3--3-3--3-33--|
d--7--7-7--5-/-10-x-5--5-5-x-3--3-3--3-33--|

                           x3
e-----------------------------|-------------------------|
b--5(5)-5-5-5--5-5-5-6\5-5-5--|--5(5)-5-5-5--5-5-5-6----|
g--4(4)-4-4-4--4-4-4-5\4-4-4--|--4(4)-4-4-4--4-4-4-5----|
d--0h2--2-2-2--2-2-2-3\2-2-2--|--0h2--2-2-2--2-2-2-3----|
a--0h2--2-2-2--2-2-2-3\2-2-2--|--0h2--2-2-2--2-2-2-3----|
d--0h2--2-2-2--2-2-2-3\2-2-2--|--0h2--2-2-2--2-2-2-3----|

                      x3
e------------------------|----------------------------------|
b------------------------|----------------------------------|
g------------------------|----------------------------------|
d------------------------|----------------------------------|
a------------------------|----------------------------------|
d--0h2-x-x-0h2-xxx-33-0--|--0h2-x-x-0h2-2-x-0h2p0-3p0-2p0---|
  pm - - - - - - - - - |   pm - - - - | ph - - - - - - - |

                         x3
e---------------------------|--------------------|
b------55-5-----------------|------55-5-5-5-5-/--|
g------44-4-----------------|------44-4-4-4-4-/--|
d--0h2-22-2-----------------|--0h2-22-2-2-2-2-/--|
a--0h2-22-2-----------------|--0h2-22-2-2-2-2-/--|
d--0h2-22-2--0h2p0-3p0-2p0--|--0h2-22-2-2-2-2-/--|
            ph - - - - - -|

e------------------------------------------|
b--10-1010-8-/-13-x-8--8-8-x-6--6-6--6-66--|
g--9--9-9--7-/-12-x-7--7-7-x-5--5-5--5-55--|
d--7--7-7--5-/-10-x-5--5-5-x-3--3-3--3-33--| x3
a--7--7-7--5-/-10-x-5--5-5-x-3--3-3--3-33--|
d--7--7-7--5-/-10-x-5--5-5-x-3--3-3--3-33--|

                           x3
e-----------------------------|-------------------------|
b--5(5)-5-5-5--5-5-5-6\5-5-5--|--5(5)-5-5-5--5-5-5-6----|
g--4(4)-4-4-4--4-4-4-5\4-4-4--|--4(4)-4-4-4--4-4-4-5----|
d--0h2--2-2-2--2-2-2-3\2-2-2--|--0h2--2-2-2--2-2-2-3----|
a--0h2--2-2-2--2-2-2-3\2-2-2--|--0h2--2-2-2--2-2-2-3----|
d--0h2--2-2-2--2-2-2-3\2-2-2--|--0h2--2-2-2--2-2-2-3----|

e-------------------------------------------------------------------|
b-------------------------------------------------------------------|
g-------------------------------------------------------------------|
d--12--12-12-12--8--8--8-8-8-8--17--17-17-17--15--15--15-15-15-15---|
a--12--12-12-12--8--8--8-8-8-8--17--17-17-17--15--15--15-15-15-15---|
d--12--12-12-12--8--8--8-8-8-8--17--17-17-17--15--15--15-15-15-15---|

e---------------------------------------------------|
b---------------------------------------------------|
g---------------------------------------------------|
d--12--12-12-12--8--8--8-8-8-8--17--17-17-17--15----|
a--12--12-12-12--8--8--8-8-8-8--17--17-17-17--15----|
d--12--12-12-12--8--8--8-8-8-8--17--17-17-17--15----|

e---------------------------------------------|
b---------------------------------------------|
g---------------------------------------------|
d----------------------------------------3----| x2
a--0h2-x-x-0h2-xxx-33-0--0h2-x-x-0h2-xxx-3----|
d--0h2-x-x-0h2-xxx-33-0--0h2-x-x-0h2-xxx-3----|
                   pm-|

e-----------------------------|
b--5(5)-5-5-5--5-5-5-6\5-5-5--|
g--4(4)-4-4-4--4-4-4-5\4-4-4--|
d--0h2--2-2-2--2-2-2-3\2-2-2--| x4
a--0h2--2-2-2--2-2-2-3\2-2-2--|
d--0h2--2-2-2--2-2-2-3\2-2-2--|

e------------------------------------------|
b--10-1010-8-/-13-x-8--8-8-x-6--6-6--6-66--|
g--9--9-9--7-/-12-x-7--7-7-x-5--5-5--5-55--|
d--7--7-7--5-/-10-x-5--5-5-x-3--3-3--3-33--| x3
a--7--7-7--5-/-10-x-5--5-5-x-3--3-3--3-33--|
d--7--7-7--5-/-10-x-5--5-5-x-3--3-3--3-33--|

e--------------------------|
b--------------------------|
g-----------------11-------|
d--2-----2/9--12--11-------| x3
a--2-----2/9--12--9---9p0--|
d--2-----2/9--12--9---9p0--|

e-------------------------------|
b-------------------------------|
g-------------------------------|
d--9--------------9-------------|
a--7--------------7-------------|
d--7--------------7-------------|

e--------------------------------------|
b--------------------------------------|
g--------------------------------------|
d--2--2-x-2--------2--2-x-2-------3----|
a--2--2-x-2--------2--2-x-2-------3----|
d--2--2-x-2--------2--2-x-2-------3----|

e--------------------------------------|
b--------------------------------------|
g--------------------------------------|
d--2--2-x-2--------2--2-x-2--x-xx-3----|
a--2--2-x-2--------2--2-x-2--x-xx-3----|
d--2--2-x-2--------2--2-x-2--x-xx-3----|

e------------------------|
b--5--5-55--/-18-18-18---|
g--4--4-44--/-17-17-17---|
d--2--2-22--/-15-15-15---| x8
a--2--2-22--/-15-15-15---|
d--2--2-22--/-15-15-15---|

(notes in parenthesis are sounded by fret hand tapping)

e---------------------------------------------------------|
b---------------------------------------------------------|
g---------------------------------------------------------|
d---------------------------------------------------------| x2
a---------------------------------------------------------|
d--0h2-(0h2-0h2)-0h2-xxx-33-0--0h2-(0h2-0h2)-0h2-xxx-3----|
                         pm-|

e------------------------------|
b------------------------------|
g------------------------------|
d------------------------------| x4
a------------------------------|
d--0h2-(0h2-0h2)-0h2-xxx-33-0--|
                 pm - - - - -|

(let off pm slowly over last bar)
e-----------------------------|
b-----------------------------|
g-----------------------------|
d-----------------------------| x4
a-----------------------------|
d--0h2-0-2-0-2--0h2-xxx-33-0--|
  pm - - - - - - - - - - - -|

e------------------------------------------|
b--10-1010-8-/-13-x-8--8-8-x-6--6-6--6-66--|
g--9--9-9--7-/-12-x-7--7-7-x-5--5-5--5-55--|
d--7--7-7--5-/-10-x-5--5-5-x-3--3-3--3-33--| x3
a--7--7-7--5-/-10-x-5--5-5-x-3--3-3--3-33--|
d--7--7-7--5-/-10-x-5--5-5-x-3--3-3--3-33--|

solo

e-------------------------------------------------------------------|
b-------------------------------------------------10----------------|
g------------------------------------------9-9h10----9-9h10-10------|
d-------7---------7--7--------7----12-10-----------------------10---|
a--8h10---10-8h10------8-8h10---10----------------------------------|
d-------------------------------------------------------------------|

e------------------------------------------------------------|
b------------------------------------------------------------|
g-----9h10-9-------------------------------------------------|
d--10--------10-9p7----------------/12-12--12-12--10b--\\----|
a-------------------10p9p8--/7--7----------------------------|
d------------------------------------------------------------|

*rest for two bars*

(volume off)

e----------------------------------|
b----------------------------------|
g----------------------------------|
d--2-------------------------------|
a--2---(volume swell)--(feedback)--|
d--2-------------------------------|

e------------------------------------------------------|
b------------------------------------------------------|
g------------------------------------------------------|
d--xx---xx---xxx--2-2-3-----3-2---3-2---3-2-2--2---3b--|
a--xx---xx---xxx--2-2-3-----3-2---3-2---3-2-2--2---3b--|
d--xx---xx---xxx--2-2-3-----3-2---3-2---3-2-2--2---3b--|

e----------------------------------------------|
b----------------------------------------------|
g----------------------------------------------|
d--xx---xx---xxx--2-2-3-----3-2---3-2---3-2-2--|
a--xx---xx---xxx--2-2-3-----3-2---3-2---3-2-2--|
d--xx---xx---xxx--2-2-3-----3-2---3-2---3-2-2--|

e-----------------------------------------------|
b------------------------------6-------------b--|
g------------------------------5-------------b--|
d--2--2--2----2--2--2----2--2--3--(feedback)----|
a--2--2--2----2--2--2----2--2--3----------------|
d--2--2--2----2--2--2----2--2--3----------------|

9. Flood


distortion)

*The intro is all bass, but I have tabbed the beginning bit
 out for guitar*

bass intro

e-------------------------------------------------------------------------|
b-------------------------------------------------------------------------|
g-------------------------------------------------------------------------|
d-------------------------------------------------------------------------|
a-------------------------------------------------------------------------|
d--0----0--6---6---------6-////-12---12-12----18-18--\\\---0----0--6---6--|

*rest*

*slight feedback*

e-------------|
b--3----------|
g--2----------|
d--0----------|
a--0----------|
d--0----------|

e------------------------------------------------------------------------------------|
b------------------------------------------------------------------------------------|
g------------------------------------------------------------------------------------|
d--5-5-6-6-5-5--5-0-0-0-6---5-5-6-6-5-5-5-3-3-3-3-3-3-3-3-3-3-3-3-3-3-3-5-5-6---0----| x3
a--5-5-6-6-5-5--5-0-0-0-6---5-5-6-6-5-5-5-3-3-3-3-3-3-3-3-3-3-3-3-3-3-3-5-5-6---0----|
d--5-5-6-6-5-5--5-0-0-0-6---5-5-6-6-5-5-5-3-3-3-3-3-3-3-3-3-3-3-3-3-3-3-5-5-6---0----|
                                            pm - - - - - - - - - - -|

e-------------------------|
b--3-----------3----------|
g--2-----------2----------|
d--0-----------0----------|
a--0-----------0----------|
d--0-----------0----------|

*slight feedback*

e---------------------------|
b---------------------------|
g---------------------------|
d--5-5-6-6-5-5--5-0-0-0-6---| x7
a--5-5-6-6-5-5--5-0-0-0-6---|
d--5-5-6-6-5-5--5-0-0-0-6---|

(guitar 1)
e---------------------------|
b---------------------------|
g---------------------------|
d--5-5-6-6-5-5--5-0-0-0-6---|
a--5-5-6-6-5-5--5-0-0-0-6---|
d--5-5-6-6-5-5--5-0-0-0-6---|
|
|(guitar 2)                  x3
e---------------------------|
b---------------------------|
g-----------------------10--|
d-------------------12------|
a---------------------------|
d---------------------------|

e-----------------------------------------------------------|
b------------------------------------------------------3----|
g------------------------------------------------------2----|
d--5-5-6-6-5-5-5-3-3-3-3-3-3-3-3-3-3-3-3-3-3-3-5-5-6---0----|
a--5-5-6-6-5-5-5-3-3-3-3-3-3-3-3-3-3-3-3-3-3-3-5-5-6---0----|
d--5-5-6-6-5-5-5-3-3-3-3-3-3-3-3-3-3-3-3-3-3-3-5-5-6---0----|
                   pm - - - - - - - - - - -|

e-------------|
b--3----------|
g--2----------|
d--0----------| x9
a--0----------|
d--0----------|

                                 x4
e------|-----------------------------|
b------|-----------------------------|
g------|-----------------------------|
d------|-----------------------------|
a--3-5-|--6p5-0-3h5-0-6p5-0-3p0-3-5--|
d------|-----------------------------|

(let off pm during last bar)
e-----------------------------|
b-----------------------------|
g-----------------------------|
d-----------------------------| x8
a--6-5-0-3-5-0-6-5-0-3-0-3-5--|
d-----------------------------|
  pm - - - - - - - - - - - -|

e-----------------------------|
b-----------------------------|
g-----------------------------|
d--6p5-0-3h5-0-6p5-0-3p0-3-5--| x4
a--6p5-0-3h5-0-6p5-0-3p0-3-5--|
d--6p5-0-3h5-0-6p5-0-3p0-3-5--|

e------------------------------|
b------------------------------|
g------------------------------|
d------------------------------| x4
a--6p5-0-3h5-0-6p5-0-3p0--3-5--|
d------------------------------|
  ph - - - - - - - - - - - -|

e-------------------------------|
b-------------------------------|
g-------------------------------|
d--3--3--3--3--3-0h3--3--3-3-3--|
a--3--3--3--3--3-0h3--3--3-3-3--|
d--3--3--3--3--3-0h3--3--3-3-3--|

                                 x4
e------|-----------------------------|
b------|-----------------------------|
g------|-----------------------------|
d------|-----------------------------|
a--3-5-|--6p5-0-3h5-0-6p5-0-3p0-3-5--|
d------|-----------------------------|

e-----------------------------|
b-----------------------------|
g-----------------------------|
d-----------------------------| x4
a--6-5-0-3-5-0-6-5-0-3-0-3-5--|
d-----------------------------|
  pm - - - - - - - - - - - -|

e-------------------------------|
b-------------------------------|
g-------------------------------|
d--5--0------------0------------|
a--5--0---(rest)---0---(rest)---|
d--5--0------------0------------|

solo

e-------------------------------------------------------------------------------------------|
b-------------------------------------------------------------------------------------------|
g-------------------------------------------------------------------------------------------|
d--------------------------------------------------------------------17-15---17-15---17-15--|
a--//-15---15-17--17-b--18-17-0-15-17-0-18-17-0-15-0-15-17-0-18-17-0-------0-------0--------|
d-------------------------------------------------------------------------------------------|

e----------------------------------------|
b----------------------------------------|
g----------------------------------------|
d--10-----xx-12-----xx-13----------12----|
a--10-----xx-12-----xx-13---x\\\\--12----|
d--10-----xx-12-----xx-13---x\\\\--12----|

e-----------------------------|
b-----------------------------|
g-----------------------------|
d--6p5-0-3h5-0-6p5-0-3p0-3-5--| x4
a--6p5-0-3h5-0-6p5-0-3p0-3-5--|
d--6p5-0-3h5-0-6p5-0-3p0-3-5--|

e-----------------------------|
b-----------------------------|
g-----------------------------|
d--6-5---3-5---6-5---3---3-5--| x4
a--6-5---3-5---6-5---3---3-5--|
d--6-5---3-5---6-5---3---3-5--|

e------------------------------------------|
b--------------------------8------6--------|
g--------------------------7-(fb)-5--(fb)--|
d--5-----3-----5-----3-----5------3--------|
a--5-----3-----5-----3-----5------3--------|
d--5-----3-----5-----3-----5------3--------|

e---------------------------------------------------------|
b---------------------------------------------------------|
g---------------------------------------------------------|
d--0--0-6--0-5--0-8--0-0-2-3---0--0-6--0-5--0-8--0-2-3-2--|
a--0--0-6--0-5--0-8--0-0-2-3---0--0-6--0-5--0-8--0-2-3-2--|
d--0--0-6--0-5--0-8--0-0-2-3---0--0-6--0-5--0-8--0-2-3-2--|

e-----------------------------------------------------------|
b-----------------------------------------------------------|
g-----------------------------------------------------------|
d--0--0-6--0-5--0-8--0-0-2-3---0--0-6--0-5--0-8--0-000-000--|
a--0--0-6--0-5--0-8--0-0-2-3---0--0-6--0-5--0-8--0-000-000--|
d--0--0-6--0-5--0-8--0-0-2-3---0--0-6--0-5--0-8--0-000-000--|

e--------------------------------------------------|
b--------------------------------------------------|
g--------------------------------------------------|
d--0--0-6--0-5--0-8--0-000-000---0--0-6--0-5--0-8--|
a--0--0-6--0-5--0-8--0-000-000---0--0-6--0-5--0-8--|
d--0--0-6--0-5--0-8--0-000-000---0--0-6--0-5--0-8--|

                                 x4
e------|-----------------------------|
b------|-----------------------------|
g------|-----------------------------|
d------|-----------------------------|
a--3-5-|--6p5-0-3h5-0-6p5-0-3p0-3-5--|
d------|-----------------------------|
   pm - - - - - - - - - - - - - - -|

e-------------------------------|
b-------------------------------|
g-------------------------------|
d--3-xxx-3-xxx-3-xxx-5-6-5-xxx--| x4
a--3-xxx-3-xxx-3-xxx-5-6-5-xxx--|
d--3-xxx-3-xxx-3-xxx-5-6-5-xxx--|

e----------------------|
b----------------------|
g----------------------|
d--3-0-0-3-0-0-3-0-0x--|
a--3-0-0-3-0-0-3-0-0x--|
d--3-0-0-3-0-0-3-0-0x--|

            
            
Suggest correction
Creating personal tab
Creating personal tab
You can edit any tab online and save it as your Personal.

You can edit, replace or remove any tab part or add personal notes – all changes will be seen only by you.

Personal tabs can be accessed anytime from any device, even offline.
Learn more »
comments
print report bad tab
2 comments total.
0 reply
NecroTrane 10 Aug 18, 2007 01:34 PM

This is a great job

0 reply
Doom_The_Sky 52 Oct 10, 2008 01:36 PM

O.o oh my damn lol you went all out, man. Fuckin awesome job

guest
Wanna post a correction for this tab? Suggest correction