Oops, an error
Loading. Please wait.

Undertow bass

version 1
version 1

Whole song

Interactive

by Tool
5,037 views 1 this week
1 commentread comment
1 2 3 4 5
1 last vote to show rating
add to favorites
×
Save as Personal and add changes to this tab that will be seen only by you. Learn more ›
×
You can save this tab as Personal to edit and correct it or add notes. All changes will be seen only by you. Learn more »
launch autoscroll
font size
0
reset
guitar tuner
edit
Autoscroll
slow
fast
+/-
esc
set tempo
stop
Author
-------------------------------------------------------------------------------
			     Undertow - Tool
-------------------------------------------------------------------------------

Tuning: DADG

G|---------------|
D|---------------| x8
A|---------------|
D|-5h7-7/10-0-00-|

G|-----------------------------|
D|-----------------------------| x7
A|-----3---6----55----6-66p5\3-|
D|-5h7---0---00----00----------|

G|-----------------------------|
D|-----------------------------|
A|-----3---6----55----55---5---|
D|-5h7---0---00----00----0---2-|

G|----|
D|----|
A|----|
D|-2b-|

G|------------------|
D|------------------| x4
A|------77-33-------|
D|-2-22-------7-777-|

G|------------------|
D|------------------|
A|------77-33-------|
D|-2-22-------5-5-5-|

G|-------------------------------------------------------------|
D|-------------------------------------------------------------|
A|-------------------------------------------------------------|
D|-5-3-0-2-0-2--5-3-0-2-0-6-0---5-3-0-2-0-2--5-3-0-2-0-3-0-6-0-|

G|-----------------------------------------------------------------|
D|-----------------------------------------------------------------|
A|-----------------------------------------------------------------|
D|-5-3-0-2-0-2--5-3-0-2-0-6-0---5-3-0-2-0-2--5-3-0-2-0-3-0-6~8~3~0-|

G|---------------|
D|---------------| x8
A|---------------|
D|-5h7-7/10-0-00-|

G|-----------------------------|
D|-----------------------------| x7
A|-----3---6----55----6-66p5\3-|
D|-5h7---0---00----00----------|

G|-----------------------------|
D|-----------------------------|
A|-----3---6----55----55---5---|
D|-5h7---0---00----00----0---2-|

G|----|
D|----|
A|----|
D|-2b-|

G|------------------|
D|------------------| x8
A|------77-33-------|
D|-2-22-------7-777-|

G|------------------|
D|------------------|
A|------77-33-------|
D|-2-22-------5-5-5-|

G|-------------------------------------------------------------|
D|-------------------------------------------------------------| x6
A|-------------------------------------------------------------|
D|-5-3-0-2-0-2--5-3-0-2-0-6-0---5-3-0-2-0-2--5-3-0-2-0-3-0-6-0-|

G|----------------------------------------------------------------------|
D|----------------------------------------------------------------------|
A|---------------------------------------------------------------0--3---|
D|-5-3-0-2-0-2--5-3-0-2-0-6-0---5-3-0-2-0-2--5-3-0-2-0-3-0-5-0-6---0--0-|

G|-----------------------------------------------------|
D|-----------------------------------------------------|
A|-5/8----------------------------5/8------------------|
D|-----00-5/8-0-3-3-0-xx-x-xx-x-------00-5h6p5p0---3-6-|

G|-------------------------------------------------------7-5h7-7p5---|
D|-----------------------------------------------------------------7-|
A|-5/8----------------------------5/8--------------------------------|
D|-----00-5/8-0-3-3-0-xx-x-xx-x-------00-5h6p5-3-3-0-----------------|

G|------------------------------------------------------|
D|------------------------------------------------------|
A|-5/8----------------------------5/8-------------------|
D|-----00-5/8-0-3-3-0-xx-x-xx-x-------xx-5h6p5-00-33-66-|

G|-------------------------------------------------------7-5-7-5-7h5-|
D|-------------------------------------------------------------------|
A|-5/8----------------------------5/8--------------------------------|
D|-----00-5/8-0-3-3-0-xx-x-xx-x-------00-5h6p5-3-3-0-----------------|

G|----------------------------------------------------------|
D|----------------------------------------------------------|
A|-5/8----------------------------5/8-----------------0-3-4-|
D|-----00-5/8-0-3-3-0-xx-x-xx-x-------xx-5h6p5-00-3-6-------|

G|------------------|
D|------------------| x2
A|-5/8--------0-3-4-|
D|-----00-3-6-------|

G|-----------------------|
D|-----------------------|
A|-5/8--------0-3-4--5/8-|
D|-----00-3-6------------|

G|---------------------------------|
D|-----------------0-12h15---------|x 6
A|---------0-12h15---------0-12h15-|
D|-0-12h15-------------------------|

G|-----------------------|
D|-----------------------| x3
A|-----------------------|
D|-5-3-0-2-0-2-5-3-0-2-0-|

G|-------------------|
D|-------------------|
A|-------------------|
D|-5-3-0-2-0-2-5-3-0-|


Song is all here. pretty sure all the parts are right. the number of times you play the 
might be off but i think i got it. you can figure out timing.

===============================================================================
| /  slide up
| \  slide down
| h  hammer-on
| p  pull-off
| ~  vibrato
| x  Mute note
===============================================================================

            
            
Suggest correction
Creating personal tab
Creating personal tab
You can edit any tab online and save it as your Personal.

You can edit, replace or remove any tab part or add personal notes – all changes will be seen only by you.

Personal tabs can be accessed anytime from any device, even offline.
Learn more »
Give kudos to tab author, rate the tab!
1 2 3 4 5
comments
print report bad tab
1 comment total.
0 reply
s0berito 104 Mar 05, 2008 10:00 AM

G|-----------------|
D|-----------------| x8
A|-----------------|
D|-5h7-7/10-0--0-0-|

G|-------------------------------------------------|
D|-------------------------------------------------|
A|-------------------------------------------------| x6
D|-5h7//10--0-13-12~~-12~--0-0--13-13-13-13p12-0-0-|

G|--------------------------------------------------|
D|--------------------------------------------------|
A|-------------------------------------------15h17~-|
D|-5h7//10--0-13-12~~-12~--0-0--0-0-0-15h17---------|

G|-------------------------------------------------|
D|-------------------------------------------------|
A|-------------------------------------------------|
D|-5h7//10--0-13-12~~-12~--0-0--13-13-13-13p12-0-0-|

rest two (2) bars

G|---------|
D|---------|
A|---------|
D|-12\\\3b-|

G|--------------------|
D|-------2-2----------|
A|-----------3--3-5~~-|
D|-2-2-2--------------|

G|---------------------------|
D|-------2-2-----------------|
A|-----------3--3-0--0-0-0-0-| x3
D|-2-2-2---------------------|

G|--------------------|
D|-------2-2----------|
A|-----------3--3-5~~-|
D|-2-2-2--------------|

G|---------------------------|-------------------------------|
D|---------------------------|-------------------------------|
A|---------------------------|-------------------------------|
D|-5-3-0-2-1-0-5-3-0-2-0-6-0-|-5-3-0-2-1-0-5-3-0-1-0-3-0-6-0-|

G|---------------------------|---------------------------------------|
D|---------------------------|---------------------------------------|
A|---------------------------|---------------------------------------|
D|-5-3-0-2-1-0-5-3-0-2-0-6-0-|-5-3-0-2-1-0-5-3-0-1-0-3-0-6~-8~-3~-0~-|

rest four (4) bars

G|---------------|
D|---------------| x8
A|---------------|
D|-5h7-7/10-0-00-|

G|-------------------------------------------------|
D|-------------------------------------------------|
A|-------------------------------------------------| x6
D|-5h7//10--0-13-12~~-12~--0-0--13-13-13-13p12-0-0-|

G|--------------------------------------------------|
D|--------------------------------------------------|
A|-------------------------------------------15h17~-|
D|-5h7//10--0-13-12~~-12~--0-0--0-0-0-15h17---------|

G|-------------------------------------------------|
D|-------------------------------------------------|
A|-------------------------------------------------|
D|-5h7//10--0-13-12~~-12~--0-0--13-13-13-13p12-0-0-|

rest two (2) bars

G|---------|
D|---------|
A|---------|
D|-12\\\3b-|

G|--------------------|
D|-------2-2----------|
A|-----------3--3-5~~-|
D|-2-2-2--------------|

G|---------------------------|
D|-------2-2-----------------|
A|-----------3--3-0--0-0-0-0-| x7
D|-2-2-2---------------------|

G|--------------------|
D|-------2-2----------|
A|-----------3--3-5~~-|
D|-2-2-2--------------|

G|---------------------------|-------------------------------|
D|---------------------------|-------------------------------|
A|---------------------------|-------------------------------| x5
D|-5-3-0-2-1-0-5-3-0-2-0-6-0-|-5-3-0-2-1-0-5-3-0-1-0-3-0-6-0-|

G|---------------------------|--------------------------------------------|
D|---------------------------|--------------------------------------------|
A|---------------------------|--------------------------------------------|
D|-5-3-0-2-1-0-5-3-0-2-0-6-0-|-5-3-0-2-1-0-5-3-0-1-0-3-0-6-0-7-0-10-0-11-0|

G|-----------------------xx-x-xxx------|---------------------------|
D|-----------------------xx-x-xxx------|---------------------------|
A|-----------------------xx-x-xxx------|---------------------------| x4
D|-12-15-0-0-5-8-0-3-3-0-xx-x-xxx-(12)-|-12-15--0-0-5-6-5-3-3-0~~~-|

G|-----------------------xx-x-xxx------|---------------------------|
D|-----------------------xx-x-xxx------|---------------------------|
A|-----------------------xx-x-xxx------|---------------------------|
D|-12-15-0-0-5-8-0-3-3-0-xx-x-xxx-(12)-|

G|-----------------------------------------------|
D|-----------------------------------------------|
A|-----------------------------------------------|
D|-12-15--0-0-5-6-5-3~--3-6~--6-7~-7-10~--11~-12~|

G|--------------------------------------------|
D|--------------------------------------------|
A|--------------------------------------------| x3
D|-12-15--0-0-5-6-5-3~--3-6~--6-7~-7-10~--11~-|


G|--------|
D|--------|
A|--------|
D|-12h15x-|

rest two (2) bars

G|------------------------------------|
D|-------------------0-12h15----------|
A|----------0-12h15-----------0-12h15-| x6
D|-0-12h15----------------------------|

G|-------------------------|-----------------------|
D|-------------------------|-----------------------|
A|-------------------------|-----------------------|
D|-0-5-3-0-2-1-0-5-3-0-2-1-|-5-3-0-2-1-0-5-3-0-2-1-|

G|-----------------------|-----------------|
D|-----------------------|-----------------|
A|-----------------------|-----------------|
D|-5-3-0-2-1-0-5-3-0-2-1-|-5-3-0-2-1-5-3-0-|

guest
You may want to rate the tab now too:
select rating
Wanna post a correction for this tab? Suggest correction