Oops, an error
Loading. Please wait.

Undertow Tab

version 1
version 1

Album

Whole song

Interactive

by Tool
14,892 views 36 this week
5 commentsread comments
1 2 3 4 5
worth learning
x 9
add to favorites
launch autoscroll
font size
0
reset
how to read this tab
guitar tuner
Tab Pro tools
  • play this tab
  • loop segment
  • change instrument
  • show fretboard
  • metronome
Autoscroll
slow
fast
+/-
esc
set tempo
stop
#-----------------------------PLEASE NOTE-------------------------------------#
#This OLGA file is the author's own work and represents their interpretation  #
#of the song. You may only use this file for private study, scholarship, or   #
#research. Remember to view this file in Courier, or some other monospaced    #
#font. See http://www.olga.net/faq/ for more information.                     #
#-----------------------------------------------------------------------------#

Date: Wed, 23 Aug 2000 22:17:37 -0400
From: "Kurt B" 
Subject: t/tool/undertow.tab

Author/Artist: Tool
Title: Undertow
Album: Undertow
Transcribed by: Kurt
Email: prying0penmythirdeye@hotmail.com

Dropped D like All tool songs.
Good for me, i tabbed it.
I did a damn good job.
But if you can't tell some of the rhythm, sorry, i just
didn't want to write the words.

-------------|-------------|-------------------|------------------------------
-0h2/5-------|-------------|-------------------|------------------------------
-------0-00--|-------------|-------------------|------------------------------
-------------|-5/7/10-0-x0-|-------------------|------------------------------
-------------|-5/7/10-0-x0-|----------3-----6-5|0-0-5h7-0-10-0-13-12----------
-------------|-5/7/10-0-x0-|0-0-5h7-0---0-0----|0-0-5h7-0-10-0-13-12----------
Riff 1  4x    Riff 2  4x   Riff 3  2x          Riff 4   2x

-----------------------|-------------------|------------------|---------------
-----------------------|-------------------|----9-------------|----9----------
--------6-----9-----11-|-------------------|----9-------------|----9----------
-0-0-/7---/10---/12----|-----2-2-----------|2-x-7-x-10-x-7-777|2-x-7-x-10-x---
-----------------------|---------3-3-0-000-|2-x---x-10-x-7-777|2-x---x-10-x---
-----------------------|2-22---------------|2-------10-x-7-777|2-------10-x---
Riff 5  4x             Riff  6  4x         Riff 7  3x          Riff 7.1

-------|--------------------------|----------------------------|--------------
-------|--------------------------|----------------------------|--------------
-------|--------------------------|----------------------------|--------------
-5-555-|--------------------------|----------------------------|--------------
-5-555-|--------------------------|----------------------------|--------------
-5-555-|5-3-0-3-1-0-5-3-0-1-0-6-0-|5-3-0-3-1-0-5-3-0-1-0-3-0-6-|--------------
        Riff 8  1x                  Riff 9  1x                 then play

-----------------------------------------------------------|------------------
-----------------------------------------------------------|------------------
-----------------------------------------------------------|------------------
------------------------------------------------6--8--3--0-|------------------
------------------------------------------------6--8--3--0-|------------------
------------------------------------------------6--8--3--0-|------------------
Riff 8 and nine once more with this at the end.            then play

------------------------------------------------------------|-----------------
------------------------------------------------------------|-----------------
------------------------------------------------------------------------------
------------------------------------------------------------|-----------------
------------------------------------------------------------|-----------------
------------------------------------------------------------|-----------------
everything from the beginning, and  play Riff 7 4x. then

------------------------|--------------------|---------------------------|----
-5-x-17-x-13-x-10-10-10-|4-x-17-x-13-x-8-8-8-|---------------------------|----
-4-x-16-x-12-x-9--9--9--|5-x-16-x-12-x-7-7-7-|---------------------------|----
-2-x-14-x-10-x-7--7--7--|2-x-14-x-10-x-5-5-5-|---------------------------|----
------------------------|--------------------|5-3-0-3-1-0-5-3-0-1-0-6----|----
------------------------|--------------------|5-3-0-3-1-0-5-3-0-1-0-6----|----
  Riff 10  x3            Riff 10.1 1x        Riff 11. 1x

----------------------------|-------------------------------------------------
----------------------------|-------------------------------------------------
----------------------------|-------------------------------------------------
----------------------------|-------------------------------------------------
-5-3-0-3-1-0-5-3-0-1-0-3-0-6|-------------------------------------------------
-5-3-0-3-1-0-5-3-0-1-0-3-0-6|-------------------------------------------------
Riff 12  1x               play riff 11 and 12 one more time each.  then

-----------------------------|------------------------|-----------------------
-----------------------------|------------------------|-----------------------
-----------------------------|------------------------|-----------------------
-----------------------------|------------------------|-----------------------
-----------------------------|------------------------|-----------------------
-----------------------------|-5-3-0-3-1-0-5-3-0-xxxx-|-----------------------
play riff 8, 9, 8, 9, then this                      then play riff 8 again

----------|---------------------------------------------------------|---------
----------|---------------------------------------------------------|---------
----------|---------------------------------------------------------|---------
----------|---------------------------------------------------------|---------
----------|---------------------------------------------------------|---------
----------|-5-3-0-3-1-0-5-3-0--1--0--3--0--6--0--7--0--10--0--11--0-|---------
then this                 (slower)

---------------------------|--------------------------|-----------------------
---------------------------|--------------------------|-----------------------
---------------------------|--------------------------|-----------------------
---------------------------|-------------------6-7----|-----------------------
-5-8-x-x-------------------|-5-8-x-x-----------6-7----|-----------------------
---------5-8-0-3-3-0-xxxx--|---------5-6-5-3---6-7----|-----------------------
  Riff 13  1x                 Riff 14  1x         go to riff 15

---|------------------------|---------------------|---------------------------
---|------------------------|---------------------|---------------------------
---|------------------------|7/10-----------------|7/10-----------------------
---|------------------------|7/10-x-x-5/8-0-3-3-0-|7/10-x-x-5h6-0-3-3-0-------
---|------------------------|5/8--x-x-5/8-0-3-3-0-|5/8--x-x-5h6-0-3-3-0-------
---|------------------------|---------5/8-0-3-3-0-|---------5h6-0-3-3-0-------
                             Riff 15    1x         Riff 16  1x

---------------------|-----------------------|--------------------------------
---------------------|-----------------------|--------------------------------
---------------------|7/10-------------------|--------------------------------
---------------------|7/10-x-x-5h6-0-3--6--7-|--------------------------------
---------------------|5/8--x-x-5h6-0-3--6--7-|--------------------------------
---------------------|---------5h6-0-3--6--7-|--------------------------------
then play 15 once then                       then play 15 again-once

------|-----------------|--------------------------|--------------------------
------|-----------------|--------------------------|--------------------------
------|7/10-------------|--------------------------|--------------------------
------|7/10-x-x-5h6-0-3-|3--5-----7--10--11--12-15-|-3--6--7--10--11--12-15---
------|5/8--x-x-5h6-0-3-|3--5-----7--10--11--12-15-|-3--6--7--10--11--12-15---
------|---------5h6-0-3-|3--5-----7--10--11--12-15-|-3--6--7--10--11--12-15---
then this           (hold that three)              play this 2 times

------|-----------------|------------------------------|----------------------
------|-----------------|------------------------------|----------------------
------|-----------------|------------------------------|----------------------
------|-3--6--7--10--11-|--------------0-12-15---------|----------------------
------|-3--6--7--10--11-|------0-12-15---------0-12-15-|----------------------
------|-3--6--7--10--11-|12-15-------------------------|----------------------
then this                Riff 16  x 8

------------------------|-----------------------------------------------------
------------------------|-----------------------------------------------------
------------------------|-----------------------------------------------------
------------------------|-----------------------------------------------------
------------------------|-5-3-0-3-1-5-3-0-------------------------------------
--5-3-0-3-1-0-5-3-0-1-0-|-5-3-0-3-1-5-3-0-------------------------------------
then this three times       THE END!
comments
print report bad tab
5 comments total. Showing first comments.
0 reply
Towlie wrote on January 13 2004, 12:00 am

The intro sounds off to me

0 reply
buckdich_187 wrote on December 13 2005, 11:27 pm

I think the intro is in the G string instead of the B string. Try this g---0h2-2/5----------------
d-----------000------------

0 reply
buckdich_187 wrote on December 13 2005, 11:28 pm

uhh... that didnt come out right but you get the picture

I want to post or [tab]
guest
You may want to rate the tab now too:
select rating
Please do not post tabs as comments. Select "correction" instead!