Oops, an error
Loading. Please wait.

Vicarious tab

version 2
by Tool
10,191 views 3 this week
no commentswrite comment
1 2 3 4 5
x 4
add to favorites
×
Save as Personal and add changes to this tab that will be seen only by you. Learn more ›
×
You can save this tab as Personal to edit and correct it or add notes. All changes will be seen only by you. Learn more »
launch autoscroll
font size
0
reset
how to read this tab
guitar tuner
backing track
0:00
0:00
edit
Autoscroll
slow
fast
+/-
esc
set tempo
stop
Difficulty
intermediate
-------------------------------------------------------------------------------
                             Vicarious - Tool
-------------------------------------------------------------------------------
Tabbed by: Chris Karnes
Email: insignia100@netscape.net

Tuning: DADGBe

This is my take on Vicarious. A few parts were taken from Mr. LeBlanc's tab, so I would
like to give him credit. 

Intro
e|------------------------------------------|-------------------------------------------|
B|------------------------------------------|-------------------------------------------|
G|o-7-----5-----7-----7-9-----5-----7---5-7-|-10p9---9-----5---5-7/9-----5-----7---5h7-o|
D|o---0-0---0-0---0-0-----0-0---0-0---0-----|------0---0-0---0-------0-0---0-0---0-----o|
A|------------------------------------------|-------------------------------------------|
D|------------------------------------------|-------------------------------------------|
pm    . .   . .   . .     . .   . .   .            .   . .   .       . .   . .   .

Last Time
e|-----------------------------------------|--------------------------------------|
B|-----------------------------------------|--------------------------------------|
G|-7-----5-----7-----7-9-----5-----7---5-7-|-10p9---9-----5---5-7-9-----5-----7---|
D|---0-0---0-0---0-0-----0-0---0-0---0-----|------0---0-0---0-------0-0---0-0---0-|
A|-----------------------------------------|--------------------------------------|
D|-----------------------------------------|--------------------------------------|
pm   . .   . .   . .     . .   . .   .            .   . .   .       . .   . .   .

e|------|
B|------|
G|------|
D|-7\5b-| Hold, with a slight bend at the end
A|-5\3b-|
D|------|


e|--------------------------------|
B|--------------------------------|
G|--------------------------------| 4x
D|--------------------------------|
A|-----------------------------15-|
D|-0---0-12-0---0--10--0--0h15-15-|
                     
          
e|-------------------------------|   |---------|
B|-------------------------------|   |---------|
G|-------------------------------|4x |---------|
D|-------------------------------|   |----12---|
A|-13p12---12-----12h13-------15-|   |----12---|
D|-------0------0-------0-0-0-15-|   |----12---|
pm       .      .       . . .

Begin building feedback about halfway through the verse. Then:

e|-------------------------------|   
B|-------------------------------|   
G|-------------------------------|2x 
D|-------------------------------|   
A|-13p12---12-----12h13-------15-|   
D|-------0------0-------0-0-0-15-|   
pm       .      .       . . .

e|-----------------------------------------|   
B|-----------------------------------------|   
G|-----------------------------------------| 
D|-----------------------------------------|   
A|-13p12---12-----12h13-------15--------10-|   
D|-------0------0-------0-0-0-15--0-0-0-10-|   
pm       .      .       . . .     . . .

e|-------------------------------------|
B|-------------------------------------|
G|-------------------------------------|
D|-0---0-3--0---0-5--0---0-3--0--0-0-1-|
A|-0---0-3--0---0-5--0---0-3--0--0-0-1-|
D|-0---0-3--0---0-5--0---0-3--0--0-0-1-|

 
e|--------------------------------|     |---------|
B|--------------------------------|     |---------|
G|--------------------------------| 4x  |---------|
D|--------------------------------|     |----12---|
A|-----------------------------15-|     |----12---|
D|-0---0-12-0---0--10--0--0h15-15-|     |----12---|


Begin building feedback at the beginning of the verse. Then:

e|-----------------------------------------|
B|-----------------------------------------|
G|-------5-----------7-------5---------7-7-|
D|-0-7-0---7-0-7-0-5---0-7-0---7-0-7-5-----|
A|-----------------------------------------|
D|-----------------------------------------|
pm . . .   . . . . .   . . .   . . . .

e|-----------------------------------------|
B|-----------------------------------------|
G|-------5-----------7-------5-------7-7-7-|
D|-0-7-0---7-0-7-0-5---0-7-0---7-0-5-------|
A|-----------------------------------------|
D|-----------------------------------------|
pm . . .   . . . . .   . . .   . . .

e|-------------------------------|   
B|-------------------------------|   
G|-------------------------------|2x 
D|-------------------------------|   
A|-13p12---12-----12h13-------15-|   
D|-------0------0-------0-0-0-15-|   
pm       .      .       . . .

e|-----------------------------------------|   
B|-----------------------------------------|   
G|-----------------------------------------| 
D|-----------------------------------------|   
A|-13p12---12-----12h13-------15--------10-|   
D|-------0------0-------0-0-0-15--0-0-0-10-|   
pm       .      .       . . .     . . .

e|-------------------------------|   
B|-------------------------------|   
G|-------------------------------|
D|-------------------------------|   
A|-13p12---12-----12h13-------15-|   
D|-------0------0-------0-0-0-15-|   
pm       .      .       . . .

   / 3 \ / 3 \  / 3 \  /  3  \
e|---------------------------------------------------------------------|
B|---------------------------------------------------------------------|
G|-9-9-9-101010-9-9-9--------------------------------------------------| 2x
D|--------------------10-10-10--0---3h5-----0---------------------5--0-|
A|-7-7-7-8-8-8--7-7-7-10-10-10--0---3h5-----0---------3---------5-5--0-|
D|--------------------10-10-10--0---3h5-0-0-0---0h3h5---0-0h3h5---5--0-|
pm                                      . .     .       . .

   / 3 \ / 3 \  / 3 \  /  3  \
e|-----------------------------|
B|-----------------------------|
G|-9-9-9-101010-9-9-9----------|
D|--------------------10-10-10-|
A|-7-7-7-8-8-8--7-7-7-10-10-10-|
D|--------------------10-10-10-|


e|--------------------------------|
B|--------------------------------|
G|--------------------------------| 3x
D|--------------------------------|
A|-----------------------------15-|
D|-0---0-12-0---0--10--0--0h15-15-|

e|--------------------|
B|--------------------|
G|--------------------| 8x
D|--------------------|
A|--------------------|
D|-0000-0-00--00--000-|
pm .... . ..  ..  ...

   / 3 \ / 3 \  / 3 \  /  3  \
e|---------------------------------------------------------------------|
B|---------------------------------------------------------------------|
G|-9-9-9-101010-9-9-9--------------------------------------------------| 2x
D|--------------------10-10-10--0---3h5-----0---------------------5--0-|
A|-7-7-7-8-8-8--7-7-7-10-10-10--0---3h5-----0---------3---------5-5--0-|
D|--------------------10-10-10--0---3h5-0-0-0---0h3h5---0-0h3h5---5--0-|
pm                                      . .     .       . . 

   / 3 \ / 3 \  / 3 \  /  3  \
e|-----------------------------|
B|-----------------------------|
G|-9-9-9-101010-9-9-9----------|
D|--------------------10-10-10-|
A|-7-7-7-8-8-8--7-7-7-10-10-10-|
D|--------------------10-10-10-|


e|-----------------|
B|-----------------|
G|-----------------| 8x
D|-----------------|
A|-----------------|
D|-0000-0--00--00--|
pm .... .  ..  ..

Solo:
e|------------------|----------------------|
B|------------------|----------------------|
G|------------------|----------------------| I like to use a wah
D|---------10\\-8\\-|---------10\\-8\\-12b-| when playing this
A|-5\\-6\\----------|-5\\-6\\--------------|
D|------------------|----------------------|

e|---------------------------------------------|
B|---------------------------------------------|
G|---------------------------------------------|
D|---------------------------------------------|
A|------5--------5----3------5h7--------3----5-|
D|-0000---0-00-0---00---0000-----0-00-0---00---|
pm ....   . .. .   ..   ....     . .. .   ..

e|---------------------------------------------|
B|---------------------------------------------|
G|---------------------------------------------|
D|---------------------------------------------|
A|------8--------7----3------5h7--------3----5-|
D|-0000---0-00-0---00---0000-----0-00-0---00---|
pm ....   . .. .   ..   ....     . .. .   ..

e|-----------------------------------------------------|
B|-----------------------------------------------------|
G|-----------------------------------------------------|
D|-----------------------------------------------------|
A|------5--------5-------3h5------7--------3-------3h5-|
D|-0000---0-00-0---0h3h5-----0000---0-00-0---0h3h5-----|
pm ....   . .. .   .         ....   . .. .   . 

e|-----------------------------------------------------|
B|-----------------------------------------------------|
G|-----------------------------------------------------|
D|-----------------------------------------------------|
A|------8--------7-------3h5------7--------3-------3h5-|
D|-0000---0-00-0---0h3h5-----0000---0-00-0---0h3h5-----|
pm ....   . .. .   .         ....   . .. .   . 

Intro again

e|-------------------------|-------------------------|
B|-------------------------|-------------------------|
G|-------5-------------0h2-|-------5-------------0h2-|
D|-0-7-0---7-0-7-3-0h3-----|-0-7-0---7-0-7-3-0h3-----|
A|-------------------------|-------------------------|
D|-------------------------|-------------------------|
pm . . .   . . . . .         . . .   . . . . .

e|-------------------------|-------------------------|
B|-------------------------|-------------------------|
G|-------5-------------0h2-|-------5---------<5>-----|
D|-0-7-0---7-0-7-3-0h3-----|-0-7-0---7-0-7-0-----<7>-|
A|-------------------------|-------------------------|
D|-------------------------|-------------------------|
pm . . .   . . . . .         . . .   . . . .

e|-------------------------|
B|-------------------------|
G|-------5-------------0h2-| 4x
D|-0-7-0---7-0-7-3-0h3-----|
A|-------------------------|
D|-------------------------|
pm . . .   . . . . .   .

e|---------------------|---------------------|
B|---------------------|---------------------|
G|-7-----5-----7-----8-|-7-----5-----7---5---| 
D|---0-0---0-0---0-0---|---0-0---0-0---0---0-|
A|---------------------|---------------------|
D|---------------------|---------------------|
pm . . . . . . . . . .   . . . . . . . . . .

e|---------------------|-------------------------|
B|---------------------|-------------------------|
G|-7-----5-----7-------|-------------------------| 
D|---0-0---0-0---0-0-8-|-7------5------7----5----|
A|-------------------6-|-5------3------5----3----|
D|---------------------|---0000---0000---00---00-|
pm . . . . . . . . .       ....   ....   ..   ..

e|--------------------------------------------------------|
B|--------------------------------------------------------|
G|--------------------------------------------------------| 2x
D|-12------10------12------13-12------10------12----10----|
A|-12------10------12------13-12------10------12----10----|
D|-12-0000-10-0000-12-0000-13-12-0000-10-0000-12-00-10-00-|
pm    ....    ....    ....       ....    ....    ..    ..

e|--------------------------------------------------------|
B|-15------13------15------16-15------13------15----13----|
G|-14------12------14------15-14------12------14----12----| 2x
D|-12------10------12------13-12------10------12----10----|
A|-12------10------12------13-12------10------12----10----|
D|-12-0000-10-0000-12-0000-13-12-0000-10-0000-12-00-10-00-|
pm    ....    ....    ....       ....    ....    ..    ..

e|-------------------------------|   
B|-------------------------------|   
G|-------------------------------|2x 
D|-------------------------------|   
A|-13p12---12-----12h13-------15-|   
D|-------0------0-------0-0-0-15-|   
pm       .      .       . . .

e|-----------------------------------------|   
B|-----------------------------------------|   
G|-----------------------------------------| 
D|-----------------------------------------|   
A|-13p12---12-----12h13-------15--------10-|   
D|-------0------0-------0-0-0-15--0-0-0-10-|   
pm       .      .       . . .     . . .

e|-------------------------------------|
B|-------------------------------------|
G|-------------------------------------|
D|-0---0-3--0---0-5--0---0-3--0--0-0-1-|
A|-0---0-3--0---0-5--0---0-3--0--0-0-1-|
D|-0---0-3--0---0-5--0---0-3--0--0-0-1-|

   / 3 \ / 3 \  / 3 \  /  3  \                         
e|-----------------------------------------------------|
B|-----------------------------------------------------|
G|-9-9-9-101010-9-9-9----------------------------------| 2x
D|--------------------10-10-10--0---3--0---5--0---3--0-| 
A|-7-7-7-8-8-8--7-7-7-10-10-10--0---3--0---5--0---3--0-| 
D|--------------------10-10-10--0---3--0---5--0---3--0-|   
   

   / 3 \ / 3 \  / 3 \  /  3  \
e|-----------------------------|
B|-----------------------------|
G|-9-9-9-101010-9-9-9----------|
D|--------------------10-10-10-|
A|-7-7-7-8-8-8--7-7-7-10-10-10-|
D|--------------------10-10-10-|


e|------------------------------|
B|------------------------------|
G|------------------------------| 4x
D|------3--------2--------------|
A|------3--------2----------3h5-|
D|-00--03--0-00-02--0-0h3h5-----|
pm ..  .   . .. .   . .

e|-------------------------|-------------------------|
B|-------------------------|-------------------------|
G|-------------------------|-------------------------|
D|-------------0h3h5-------|-------------0h3h5-------|
A|-------0h3h5-------0h3h5-|-------0h3h5-------0h3h5-|
D|-0h3h5-------------------|-0h3h5-------------------|
pm .     .     .     .       .     .     .     .

e|-------------------------|---------------------|
B|-------------------------|---------------------|
G|-------------------------|---------------------|
D|-------------0h3h5-------|-------------0h3h5-0-|
A|-------0h3h5-------0h3h5-|-------0h3h5-------0-|
D|-0h3h5-------------------|-0h3h5-------------0-|
pm .     .     .     .       .     .     .     

| /   slide up
| \   slide down
| h   hammer-on
| p   pull-off
| b   bend
| \\  tremolo pick
| ~   vibrato
| +   harmonic
| <>  pinch harmonic
| x   Mute note
| /3\ triplet
===============================================================================

            
            
Suggest correction
Creating personal tab
Creating personal tab
You can edit any tab online and save it as your Personal.

You can edit, replace or remove any tab part or add personal notes – all changes will be seen only by you.

Personal tabs can be accessed anytime from any device, even offline.
Learn more »
comments
print report bad tab
guest
Wanna post a correction for this tab? Suggest correction