Oops, an error
Loading. Please wait.

Vicarious tab

version 4
by Tool
8,508 views 9 this week
1 commentread comment
1 2 3 4 5
x 5
add to favorites
×
Save as Personal and add changes to this tab that will be seen only by you. Learn more ›
×
You can save this tab as Personal to edit and correct it or add notes. All changes will be seen only by you. Learn more »
launch autoscroll
font size
0
reset
how to read this tab
guitar tuner
backing track
0:00
0:00
edit
Autoscroll
slow
fast
+/-
esc
set tempo
stop
Author
Difficulty
intermediate
Tool - Vicarious



Duration Legend
---------------
W - whole
H - half
Q - quarter
E - 8th
S - 16th
T - 32nd
X - 64th
. - note dotted
|-n-|  - n-tuplets


Tablature Legend
----------------
L - tied note
x - dead note
g - grace note
(n) - ghost note
> - accentuded note
NH - natural harmonic
AH - artificial harmonic
TH - tapped harmonic
SH - semi harmonic
PH - pitch harmonic
h - hammer on
p - pull off
b - bend
br - bendRelease
pb - preBend
pbr - preBendRelease
brb - bendReleaseBend
\n/ - tremolo bar dip
\n - tremolo bar dive
-/n - tremolo bar Release up
/n\ - tremolo bar inverted dip
/n - tremolo bar return
-\n - tremolo bar Release down
S - shift slide
s - legato slide
/ -  slide into from below or out of upwards
\ -  slide into from above or out of downwards
~ - vibrato
W - wide vibrato
tr - trill
TP - tremolo picking
T - tapping
S - slap
P - pop
< - fade in
^ - brush up
v - brush down




                PM       PM    PM    PM          PM       PM          PM     
             E  E  E  E  E  E  E  E  E  E     E  E  E  E  E  E  E  E  E  E   
E||-------|--------------------------------|--------------------------------|
B||-------|--------------------------------|--------------------------------|
G||-------|-----------5-----------------7--|-----------5--------------------|
D||-------|-----7--------7-----7-----5-----|-----7--------7-----7-----5-----|
A||-------|--5-----8--------5-----5--------|--5-----8--------5-----8-----7--|
D||-------|--------------------------------|--------------------------------|


     PM       PM    PM    PM          PM       PM          PM     
  E  E  E  E  E  E  E  E  E  E     E  E  E  E  E  E  E  E  E  E   
--------------------------------|--------------------------------|
--------------------------------|--------------------------------|
-----------5-----------------7--|-----------5--------------------|
-----7--------7-----7-----5-----|-----7--------7-----7-----5-----|
--5-----8--------5-----5--------|--5-----8--------5-----8-----7--|
--------------------------------|--------------------------------|


     PM       PM    PM    PM          PM       PM          PM     
  E  E  E  E  E  E  E  E  E  E     E  E  E  E  E  E  E  E  E  E   
--------------------------------|--------------------------------|
--------------------------------|--------------------------------|
-----------5-----------------7--|-----------5--------------------|
-----7--------7-----7-----5-----|-----7--------7-----7-----5-----|
--5-----8--------5-----5--------|--5-----8--------5-----8-----7--|
--------------------------------|--------------------------------|


     PM       PM    PM    PM          PM       PM          PM     
  E  E  E  E  E  E  E  E  E  E     E  E  E  E  E  E  E  E  E  E   
--------------------------------|--------------------------------|
--------------------------------|--------------------------------|
-----------5-----------------7--|-----------5--------------------|
-----7--------7-----7-----5-----|-----7--------7-----7-----5-----|
--5-----8--------5-----5--------|--5-----8--------5-----8-----7--|
--------------------------------|--------------------------------|


     PM       PM    PM    PM          PM       PM          PM     
  E  E  E  E  E  E  E  E  E  E     E  E  E  E  E  E  E  E  E  E   
--------------------------------|--------------------------------|
--------------------------------|--------------------------------|
-----------5-----------------7--|-----------5--------------------|
-----7--------7-----7-----5-----|-----7--------7-----7-----5-----|
--5-----8--------5-----5--------|--5-----8--------5-----8-----7--|
--------------------------------|--------------------------------|


     PM       PM    PM    PM          PM       PM          PM     
  E  E  E  E  E  E  E  E  E  E     E  E  E  E  E  E  E  E  E  E   
--------------------------------|--------------------------------|
--------------------------------|--------------------------------|
-----------5-----------------7--|-----------5--------------------|
-----7--------7-----7-----5-----|-----7--------7-----7-----5-----|
--5-----8--------5-----5--------|--5-----8--------5-----8-----7--|
--------------------------------|--------------------------------|


     PM       PM    PM    PM          PM       PM          PM     
  E  E  E  E  E  E  E  E  E  E     E  E  E  E  E  E  E  E  E  E   
--------------------------------|--------------------------------|
--------------------------------|--------------------------------|
-----------5-----------------7--|-----------5--------------------|
-----7--------7-----7-----5-----|-----7--------7-----7-----5-----|
--5-----8--------5-----5--------|--5-----8--------5-----8-----7--|
--------------------------------|--------------------------------|


     PM       PM    PM    PM          PM       PM          PM     
  E  E  E  E  E  E  E  E  E  E     E  E  E  E  E  E  E  E  E  E   
--------------------------------|--------------------------------|
--------------------------------|--------------------------------|
-----------5-----------------7--|-----------5--------------------|
-----7--------7-----7-----5-----|-----7--------7-----7-----5-----|
--5-----8--------5-----5--------|--5-----8--------5-----8-----7--|
--------------------------------|--------------------------------|


  W                Q       E.  S  E  Q    E   E  E  S   S  E   
------------------------|-------------------------------------|
------------------------|-------------------------------------|
------------------------|-------------------------------------|
------------------------|-------------------------------------|
--L----------------L----|---------------------------------15--|
------------------------|--0---0-12--0----0--10--0--0h-15-15--|


  E.  S  E  Q    E   E  E  S   S  E     E.  S  E  Q    E   E  E  S   S  E   
-------------------------------------|-------------------------------------|
-------------------------------------|-------------------------------------|
-------------------------------------|-------------------------------------|
-------------------------------------|-------------------------------------|
---------------------------------15--|---------------------------------15--|
--0---0-12--0----0--10--0--0h-15-15--|--0---0-12--0----0--10--0--0h-15-15--|


  E.  S  E  Q    E   E  E  S   S  E      E   E  E   Q    E   E   E  S   S  E   
-------------------------------------|----------------------------------------|
-------------------------------------|----------------------------------------|
-------------------------------------|----------------------------------------|
-------------------------------------|----------------------------------------|
---------------------------------15--|--13--12-----12-------12--13--------15--|
--0---0-12--0----0--10--0--0h-15-15--|---0---0------0--------0---0--0h-15-15--|


   E   E  E   Q    E   E   E  S   S  E   
----------------------------------------|
----------------------------------------|
----------------------------------------|
----------------------------------------|
--13--12-----12-------12--13--------15--|
---0---0------0--------0---0--0h-15-15--|


   E   E  E   Q    E   E   E  S   S  E   
----------------------------------------|
----------------------------------------|
----------------------------------------|
----------------------------------------|
--13--12-----12-------12--13--------15--|
---0---0------0--------0---0--0h-15-15--|


   E   E  E   Q    E   E   E  S   S  E     H        H        Q             
----------------------------------------|-------------------------|-------|
----------------------------------------|--3----------------------|-------|
----------------------------------------|--2----------------------|-------|
----------------------------------------|--0----------------------|-------|
--13--12-----12-------12--13--------15--|--0----------------------|-------|
---0---0------0--------0---0--0h-15-15--|--0----------------------|-------|


                  <                                               
                  W                Q       Q    W                 
-------|-------|------------------------|------------------------|
-------|-------|------------------------|------------------------|
-------|-------|------------------------|------------------------|
-------|-------|--7---------------------|--L----L----------------|
-------|-------|--5----------------L----|--L----L----------------|
-------|-------|------------------------|------------------------|


  Q    W                   Q    W                 
------------------------|------------------------|
------------------------|------------------------|
------------------------|------------------------|
--L----L----------------|--L----L----------------|
--L----L----------------|--L----L----------------|
------------------------|------------------------|


   E   E  E   Q    E   E   E  S   S  E   
----------------------------------------|
----------------------------------------|
----------------------------------------|
----------------------------------------|
--13--12-----12-------12--13--------15--|
---0---0------0--------0---0--0h-15-15--|


   E   E  E   Q    E   E   E  S   S  E   
----------------------------------------|
----------------------------------------|
----------------------------------------|
----------------------------------------|
--13--12-----12-------12--13--------15--|
---0---0------0--------0---0--0h-15-15--|


   E   E  E   Q    E   E   E  S   S  E  S   S  E   
--------------------------------------------------|
--------------------------------------------------|
--------------------------------------------------|
----------------------------------------------10--|
--13--12-----12-------12--13--------15--------10--|
---0---0------0--------0---0--0h-15-15--0h-10-10--|


  E  S S E  E  S S E  E  S S E  E  E  E     E.  S  E  Q    E   E  E  S   S  E   
-----------------------------------------|-------------------------------------|
-----------------------------------------|-------------------------------------|
-----------------------------------------|-------------------------------------|
--0------3--0------5--0------3--0--------|-------------------------------------|
--0------3--0------5--0------3--0--------|---------------------------------15--|
--0----0-3--0----0-5--0----0-3--0--7--8--|--0---0-12--0----0--10--0--0h-15-15--|


                    PM PM PM                                                   
  E.  S  E  Q    E  S  S  S  S S  S  E     E.  S  E  Q    E   E  E  S   S  E   
----------------------------------------|-------------------------------------|
----------------------------------------|-------------------------------------|
----------------------------------------|-------------------------------------|
----------------------------------------|-------------------------------------|
--------------------0--0--0---------15--|---------------------------------15--|
--0---0-12--0----0--0--0--0----0-15-15--|--0---0-12--0----0--10--0--0h-15-15--|


  E.  S  E  Q    E   E  E  S   S  E     H        H        Q                     
-------------------------------------|-------------------------|-------|-------|
-------------------------------------|--3----------------------|-------|-------|
-------------------------------------|--2----------------------|-------|-------|
-------------------------------------|--0----------------------|-------|-------|
---------------------------------15--|--0----------------------|-------|-------|
--0---0-12--0----0--10--0--0h-15-15--|--0----------------------|-------|-------|


          E  E  E  E  E  E  E  E  E  E     E  E  E  E  E  E  E  E  E  E   
-------|--------------------------------|--------------------------------|
-------|--------------------------------|--------------------------------|
-------|-----------5-----------------7--|-----------5-----------------7--|
-------|-----7--------7-----7-----5-----|-----7--------7-----7-----5-----|
-------|--5-----5--------5-----5--------|--5-----8--------5-----5--------|
-------|--------------------------------|--------------------------------|


  E  E  E  E  E  E  E  E  E  E     E  E  E  E  E  E  E  E  E  E   
--------------------------------|--------------------------------|
--------------------------------|--------------------------------|
-----------5-----------------7--|-----------5--------------5-----|
-----7--------7-----7-----5-----|-----7--------7-----7--------7--|
--5-----5--------5-----5--------|--5-----5--------5-----5--------|
--------------------------------|--------------------------------|


   E   E  E   Q    E   E   E  S   S  E   
----------------------------------------|
----------------------------------------|
----------------------------------------|
----------------------------------------|
--13--12-----12-------12--13--------15--|
---0---0------0--------0---0--0h-15-15--|


   E   E  E   Q    E   E   E  S   S  E   
----------------------------------------|
----------------------------------------|
----------------------------------------|
----------------------------------------|
--13--12-----12-------12--13--------15--|
---0---0------0--------0---0--0h-15-15--|


   E   E  E   Q    E   E   E  S   S  E  S   S  E   
--------------------------------------------------|
--------------------------------------------------|
--------------------------------------------------|
----------------------------------------------10--|
--13--12-----12-------12--13--------15--------10--|
---0---0------0--------0---0--0h-15-15--0h-10-10--|


   E   E  E   Q    E   E   E  S   S  E   
----------------------------------------|
----------------------------------------|
----------------------------------------|
----------------------------------------|
--13--12-----12-------12--13--------15--|
---0---0------0--------0---0--0h-15-15--|


  E  E  E  E  E  E  E  E  E   E   E   E   
-----------------------------------------|
-----------------------------------------|
-----------------------------------------|
-----------------------------10--10--10--|
--7--7--7--8--8--8--7--7--7--10--10--10--|
--3--3--3--3--3--3--5--5--5--10--10--10--|


       PM PM    PM PM                                        
                                 |-3-|       |-3-|           
  Q    S  S  E  S  S  E  E  Q    S S S E  E  S S S E  E  E   
------------------------------------------------------------|
------------------------------------------------------------|
------------------------------------------------------------|
--0----0--0--3--0--0--5--x--0----------------------5--5--0--|
--0----0--0--3--0--0--5--x--0----------3-----------5--5--0--|
--0----0--0--3--0--0--5--x--0----0-3-5----0--0-3-5-5--5--0--|


  E  E  E  E  E  E  E  E  E   E   E   E   
-----------------------------------------|
-----------------------------------------|
-----------------------------------------|
-----------------------------10--10--10--|
--7--7--7--8--8--8--7--7--7--10--10--10--|
--3--3--3--3--3--3--5--5--5--10--10--10--|


       PM PM    PM PM                                        
                                 |-3-|       |-3-|           
  Q    S  S  E  S  S  E  E  Q    S S S E  E  S S S E  E  E   
------------------------------------------------------------|
------------------------------------------------------------|
------------------------------------------------------------|
--0----0--0--3--0--0--5--x--0----------------------5--5--0--|
--0----0--0--3--0--0--5--x--0----------3-----------5--5--0--|
--0----0--0--3--0--0--5--x--0----0-3-5----0--0-3-5-5--5--0--|


  E  E  E  E  E  E  E  E  E   E   E   E     E.  S  E  Q    E   E  E  S   S  E   
-----------------------------------------|-------------------------------------|
-----------------------------------------|-------------------------------------|
-----------------------------------------|-------------------------------------|
-----------------------------10--10--10--|-------------------------------------|
--7--7--7--8--8--8--7--7--7--10--10--10--|---------------------------------15--|
--3--3--3--3--3--3--5--5--5--10--10--10--|--0---0-12--0----0--10--0--0h-15-15--|


  E.  S  E  Q    E   E  E  S   S  E     E.  S  E  Q    E   E  E  S   S  E   
-------------------------------------|-------------------------------------|
-------------------------------------|-------------------------------------|
-------------------------------------|-------------------------------------|
-------------------------------------|-------------------------------------|
---------------------------------15--|---------------------------------15--|
--0---0-12--0----0--10--0--0h-15-15--|--0---0-12--0----0--10--0--0h-15-15--|


  PM PM PM PM PM PM   PM PM   PM PM     PM PM     
  S  S  S  S  E  S  S S  S  S S  S  E.  S  S  E   
-------------------------------------------------|
-------------------------------------------------|
-------------------------------------------------|
-------------------------------------------------|
-------------------------------------------------|
--0--0--0--0--0--0----0--0----0--0------0--0-----|


  PM PM PM PM PM PM   PM PM   PM PM     PM PM     
  S  S  S  S  E  S  S S  S  S S  S  E.  S  S  E   
-------------------------------------------------|
-------------------------------------------------|
-------------------------------------------------|
-------------------------------------------------|
-------------------------------------------------|
--0--0--0--0--0--0----0--0----0--0------0--0-----|


  PM PM PM PM PM PM   PM PM   PM PM     PM PM     
  S  S  S  S  E  S  S S  S  S S  S  E.  S  S  E   
-------------------------------------------------|
-------------------------------------------------|
-------------------------------------------------|
-------------------------------------------------|
-------------------------------------------------|
--0--0--0--0--0--0----0--0----0--0------0--0-----|


  PM PM PM PM PM PM   PM PM   PM PM     PM PM     
  S  S  S  S  E  S  S S  S  S S  S  E.  S  S  E   
-------------------------------------------------|
-------------------------------------------------|
-------------------------------------------------|
-------------------------------------------------|
-------------------------------------------------|
--0--0--0--0--0--0----0--0----0--0------0--0-----|


  PM PM PM PM PM PM   PM PM   PM PM     PM PM     
  S  S  S  S  E  S  S S  S  S S  S  E.  S  S  E   
-------------------------------------------------|
-------------------------------------------------|
-------------------------------------------------|
-------------------------------------------------|
-------------------------------------------------|
--0--0--0--0--0--0----0--0----0--0------0--0-----|


  PM PM PM PM PM PM   PM PM   PM PM     PM PM     
  S  S  S  S  E  S  S S  S  S S  S  E.  S  S  E   
-------------------------------------------------|
-------------------------------------------------|
-------------------------------------------------|
-------------------------------------------------|
-------------------------------------------------|
--0--0--0--0--0--0----0--0----0--0------0--0-----|


  PM PM PM PM PM PM   PM PM   PM PM     PM PM     
  S  S  S  S  E  S  S S  S  S S  S  E.  S  S  E   
-------------------------------------------------|
-------------------------------------------------|
-------------------------------------------------|
-------------------------------------------------|
-------------------------------------------------|
--0--0--0--0--0--0----0--0----0--0------0--0-----|


  PM PM PM PM PM PM   PM PM   PM PM     PM PM     
  S  S  S  S  E  S  S S  S  S S  S  E.  S  S  E   
-------------------------------------------------|
-------------------------------------------------|
-------------------------------------------------|
-------------------------------------------------|
-------------------------------------------------|
--0--0--0--0--0--0----0--0----0--0------0--0-----|


  E  E  E  E  E  E  E  E  E   E   E   E   
-----------------------------------------|
-----------------------------------------|
-----------------------------------------|
-----------------------------10--10--10--|
--7--7--7--8--8--8--7--7--7--10--10--10--|
--3--3--3--3--3--3--5--5--5--10--10--10--|


       PM PM    PM PM                                        
                                 |-3-|       |-3-|           
  Q    S  S  E  S  S  E  E  Q    S S S E  E  S S S E  E  E   
------------------------------------------------------------|
------------------------------------------------------------|
------------------------------------------------------------|
--0----0--0--3--0--0--5--x--0----------------------5--5--0--|
--0----0--0--3--0--0--5--x--0----------3-----------5--5--0--|
--0----0--0--3--0--0--5--x--0----0-3-5----0--0-3-5-5--5--0--|


  E  E  E  E  E  E  E  E  E   E   E   E   
-----------------------------------------|
-----------------------------------------|
-----------------------------------------|
-----------------------------10--10--10--|
--7--7--7--8--8--8--7--7--7--10--10--10--|
--3--3--3--3--3--3--5--5--5--10--10--10--|


       PM PM    PM PM                                        
                                 |-3-|       |-3-|           
  Q    S  S  E  S  S  E  E  Q    S S S E  E  S S S E  E  E   
------------------------------------------------------------|
------------------------------------------------------------|
------------------------------------------------------------|
--0----0--0--3--0--0--5--x--0----------------------5--5--0--|
--0----0--0--3--0--0--5--x--0----------3-----------5--5--0--|
--0----0--0--3--0--0--5--x--0----0-3-5----0--0-3-5-5--5--0--|


  E  E  E  E  E  E  E  E  E   E   E   E   
-----------------------------------------|
-----------------------------------------|
-----------------------------------------|
-----------------------------10--10--10--|
--7--7--7--8--8--8--7--7--7--10--10--10--|
--3--3--3--3--3--3--5--5--5--10--10--10--|


  PM PM PM PM    PM   PM PM          PM PM     
  S  S  S  S  E  S  S S  S  E  S E.  S  S  E   
----------------------------------------------|
----------------------------------------------|
----------------------------------------------|
----------------------------------------------|
----------------------------------------------|
--0--0--0--0-----0----0--0-----------0--0-----|


  PM PM PM      PM   PM PM          PM PM     
  S  S  S  S E  S  S S  S  S E  E.  S  S  E   
---------------------------------------------|
---------------------------------------------|
---------------------------------------------|
---------------------------------------------|
---------------------------------------------|
--0--0--0--0----0----0--0-----------0--0-----|


  PM PM PM PM    PM   PM PM           PM PM     
  S  S  S  S  E  S  S S  S  S S S E.  S  S  E   
-----------------------------------------------|
-----------------------------------------------|
-----------------------------------------------|
-----------------------------------------------|
-----------------------------------------------|
--0--0--0--0-----0----0--0------------0--0-----|


  PM PM PM PM    PM   PM PM           PM PM     
  S  S  S  S  E  S  S S  S  S S S E.  S  S  E   
-----------------------------------------------|
-----------------------------------------------|
-----------------------------------------------|
-----------------------------------------------|
-----------------------------------------------|
--0--0--0--0-----0----0--0------------0--0-----|


  PM PM PM PM PM PM   PM PM                  
  S  S  S  S  E  S  S S  S  S Q    S S S E   
--------------------------------------------|
--------------------------------------------|
--------------------------------------------|
--------------------------------------------|
--------------------------------------------|
--0--0--0--0--0--0----0--0-----------0-0----|


  PM PM PM PM PM PM   PM PM                  
  S  S  S  S  E  S  S S  S  S Q    S S S E   
--------------------------------------------|
--------------------------------------------|
--------------------------------------------|
--------------------------------------------|
--------------------------------------------|
--0--0--0--0--0--0----0--0-----------0-0----|


  PM PM PM PM PM PM   PM PM                  
  S  S  S  S  E  S  S S  S  S Q    S S S E   
--------------------------------------------|
--------------------------------------------|
--------------------------------------------|
--------------------------------------------|
--------------------------------------------|
--0--0--0--0--0--0----0--0-----------0-0----|


  PM PM PM PM PM PM   PM PM                  
  S  S  S  S  E  S  S S  S  S Q    S S S E   
--------------------------------------------|
--------------------------------------------|
--------------------------------------------|
--------------------------------------------|
--------------------------------------------|
--0--0--0--0--0--0----0--0-----------0-0----|


  PM PM PM PM PM PM   PM PM   PM PM     PM PM     
  S  S  S  S  E  S  S S  S  S S  S  E.  S  S  E   
-------------------------------------------------|
-------------------------------------------------|
-------------------------------------------------|
-------------------------------------------------|
-------------------------------------------------|
--0--0--0--0--0--0----0--0----0--0------0--0-----|


  PM PM PM PM PM PM   PM PM   PM PM     PM PM     
  S  S  S  S  E  S  S S  S  S S  S  E.  S  S  E   
-------------------------------------------------|
-------------------------------------------------|
-------------------------------------------------|
-------------------------------------------------|
-------------------------------------------------|
--0--0--0--0--0--0----0--0----0--0------0--0-----|


  PM PM PM PM PM PM   PM PM   PM PM     PM PM     
  S  S  S  S  E  S  S S  S  S S  S  E.  S  S  E   
-------------------------------------------------|
-------------------------------------------------|
-------------------------------------------------|
-------------------------------------------------|
-------------------------------------------------|
--0--0--0--0--0--0----0--0----0--0------0--0-----|


  PM PM PM PM PM PM   PM PM   PM PM     PM PM          
  S  S  S  S  E  S  S S  S  S S  S  E.  S  S  E  Q     
------------------------------------------------------|
------------------------------------------------------|
------------------------------------------------------|
-------------------------------------------------L----|
------------------------------------------------------|
--0--0--0--0--0--0----0--0----0--0------0--0----------|


  PM PM PM PM PM PM   PM PM   PM PM     PM PM     
  S  S  S  S  E  S  S S  S  S S  S  E.  S  S  E   
-------------------------------------------------|
-------------------------------------------------|
-------------------------------------------------|
-------------------------------------------------|
-------------------------------------------------|
--0--0--0--0--0--0----0--0----0--0------0--0-----|


  PM PM PM PM PM PM   PM PM   PM PM     PM PM     
  S  S  S  S  E  S  S S  S  S S  S  E.  S  S  E   
-------------------------------------------------|
-------------------------------------------------|
-------------------------------------------------|
-------------------------------------------------|
-------------------------------------------------|
--0--0--0--0--0--0----0--0----0--0------0--0-----|


  PM PM PM PM PM PM   PM PM   PM PM     PM PM     
  S  S  S  S  E  S  S S  S  S S  S  E.  S  S  E   
-------------------------------------------------|
-------------------------------------------------|
-------------------------------------------------|
-------------------------------------------------|
-------------------------------------------------|
--0--0--0--0--0--0----0--0----0--0------0--0-----|


  PM PM PM PM PM PM   PM PM   PM PM     PM PM     
  S  S  S  S  E  S  S S  S  S S  S  E.  S  S  E   
-------------------------------------------------|
-------------------------------------------------|
-------------------------------------------------|
-------------------------------------------------|
-------------------------------------------------|
--0--0--0--0--0--0----0--0----0--0------0--0-----|


  PM PM   PM    PM   PM PM           PM PM     
  S  S  S S  E  S  S S  S  S S E  E  S  S  E   
----------------------------------------------|
----------------------------------------------|
----------------------------------------------|
----------------------------------------------|
-------------5-----------------5-----------3--|
--0--0----0-----0----0--0----0-------0--0-----|


  PM PM PM PM    PM   PM PM   PM       PM PM     
  S  S  S  S  E  S  S S  S  S S  E  E  S  S  E   
------------------------------------------------|
------------------------------------------------|
------------------------------------------------|
------------------------------------------------|
--------------7------------------3-----------5--|
--0--0--0--0-----0----0--0----0--------0--0-----|


  PM PM PM PM    PM   PM PM   PM       PM PM     
  S  S  S  S  E  S  S S  S  S S  E  E  S  S  E   
------------------------------------------------|
------------------------------------------------|
------------------------------------------------|
------------------------------------------------|
--------------8------------------7-----------3--|
--0--0--0--0-----0----0--0----0--------0--0-----|


  PM PM PM PM    PM   PM PM   PM       PM PM     
  S  S  S  S  E  S  S S  S  S S  E  E  S  S  E   
------------------------------------------------|
------------------------------------------------|
------------------------------------------------|
------------------------------------------------|
--------------7------------------3-----------5--|
--0--0--0--0-----0----0--0----0--------0--0-----|


  PM PM   PM    PM   PM PM           PM PM     
  S  S  S S  E  S  S S  S  S S E  E  S  S  E   
----------------------------------------------|
----------------------------------------------|
----------------------------------------------|
----------------------------------------------|
-------------5-----------------5-----------3--|
--0--0----0-----0----0--0----0-------0--0-----|


  PM PM PM PM    PM   PM PM   PM       PM PM     
  S  S  S  S  E  S  S S  S  S S  E  E  S  S  E   
------------------------------------------------|
------------------------------------------------|
------------------------------------------------|
------------------------------------------------|
--------------7------------------3-----------5--|
--0--0--0--0-----0----0--0----0--------0--0-----|


  PM PM PM PM    PM   PM PM   PM       PM PM     
  S  S  S  S  E  S  S S  S  S S  E  E  S  S  E   
------------------------------------------------|
------------------------------------------------|
------------------------------------------------|
------------------------------------------------|
--------------8------------------7-----------3--|
--0--0--0--0-----0----0--0----0--------0--0-----|


  PM PM PM PM    PM   PM PM   PM       PM PM     
  S  S  S  S  E  S  S S  S  S S  E  E  S  S  E   
------------------------------------------------|
------------------------------------------------|
------------------------------------------------|
------------------------------------------------|
--------------7------------------3-----------5--|
--0--0--0--0-----0----0--0----0--------0--0-----|


  PM PM   PM    PM   PM PM   PM                  
                                      |-3-|      
  S  S  S S  E  S  S S  S  S S  E  E  S S S S S  
------------------------------------------------|
------------------------------------------------|
------------------------------------------------|
------------------------------------------------|
-------------5------------------5-----------3-5-|
--0--0----0-----0----0--0----0--------0-3-5-----|


  PM PM   PM    PM   PM PM   PM                  
                                      |-3-|      
  S  S  S S  E  S  S S  S  S S  E  E  S S S S S  
------------------------------------------------|
------------------------------------------------|
------------------------------------------------|
------------------------------------------------|
-------------7------------------3-----------3-5-|
--0--0----0-----0----0--0----0--------0-3-5-----|


  PM PM   PM    PM   PM PM   PM                  
                                      |-3-|      
  S  S  S S  E  S  S S  S  S S  E  E  S S S S S  
------------------------------------------------|
------------------------------------------------|
------------------------------------------------|
------------------------------------------------|
-------------8------------------7-----------3-5-|
--0--0----0-----0----0--0----0--------0-3-5-----|


  PM PM   PM    PM   PM PM   PM                  
                                      |-3-|      
  S  S  S S  E  S  S S  S  S S  E  E  S S S S S  
------------------------------------------------|
------------------------------------------------|
------------------------------------------------|
------------------------------------------------|
-------------7------------------3-----------3-5-|
--0--0----0-----0----0--0----0--------0-3-5-----|


  PM PM   PM    PM   PM PM   PM                  
                                      |-3-|      
  S  S  S S  E  S  S S  S  S S  E  E  S S S S S  
------------------------------------------------|
------------------------------------------------|
------------------------------------------------|
------------------------------------------------|
-------------5------------------5-----------3-5-|
--0--0----0-----0----0--0----0--------0-3-5-----|


  PM PM   PM    PM   PM PM   PM                  
                                      |-3-|      
  S  S  S S  E  S  S S  S  S S  E  E  S S S S S  
------------------------------------------------|
------------------------------------------------|
------------------------------------------------|
------------------------------------------------|
-------------7------------------3-----------3-5-|
--0--0----0-----0----0--0----0--------0-3-5-----|


  PM PM   PM    PM   PM PM   PM                  
                                      |-3-|      
  S  S  S S  E  S  S S  S  S S  E  E  S S S S S  
------------------------------------------------|
------------------------------------------------|
------------------------------------------------|
------------------------------------------------|
-------------8------------------7-----------3-5-|
--0--0----0-----0----0--0----0--------0-3-5-----|


  PM PM   PM    PM   PM PM   PM                  
                                      |-3-|      
  S  S  S S  E  S  S S  S  S S  E  E  S S S S S  
------------------------------------------------|
------------------------------------------------|
------------------------------------------------|
------------------------------------------------|
-------------7------------------3-----------3-5-|
--0--0----0-----0----0--0----0--------0-3-5-----|


     PM       PM    PM    PM          PM       PM    PM    PM     
  E  E  E  E  E  E  E  E  E  E     E  E  E  E  E  E  E  E  E  E   
--------------------------------|--------------------------------|
--------------------------------|--------------------------------|
-----------5-----------------7--|-----------5--------------------|
-----7--------7-----7-----5-----|-----7--------7-----7-----5-----|
--5-----8--------5-----5--------|--5-----8--------5-----8-----7--|
--------------------------------|--------------------------------|


     PM       PM    PM    PM          PM       PM    PM    PM     
  E  E  E  E  E  E  E  E  E  E     E  E  E  E  E  E  E  E  E  E   
--------------------------------|--------------------------------|
--------------------------------|--------------------------------|
-----------5-----------------7--|-----------5--------------------|
-----7--------7-----7-----5-----|-----7--------7-----7-----5-----|
--5-----8--------5-----5--------|--5-----8--------5-----8-----7--|
--------------------------------|--------------------------------|


     PM       PM    PM    PM          PM       PM    PM    PM     
  E  E  E  E  E  E  E  E  E  E     E  E  E  E  E  E  E  E  E  E   
--------------------------------|--------------------------------|
--------------------------------|--------------------------------|
-----------5-----------------7--|-----------5--------------------|
-----7--------7-----7-----5-----|-----7--------7-----7-----5-----|
--5-----8--------5-----5--------|--5-----8--------5-----8-----7--|
--------------------------------|--------------------------------|


     PM       PM    PM    PM          PM       PM    PM    PM     
  E  E  E  E  E  E  E  E  E  E     E  E  E  E  E  E  E  E  E  E   
--------------------------------|--------------------------------|
--------------------------------|--------------------------------|
-----------5-----------------7--|-----------5--------------------|
-----7--------7-----7-----5-----|-----7--------7-----7-----5-----|
--5-----8--------5-----5--------|--5-----8--------5-----8-----7--|
--------------------------------|--------------------------------|


     PM       PM    PM    PM          PM       PM    PM    PM     
  E  E  E  E  E  E  E  E  E  E     E  E  E  E  E  E  E  E  E  E   
--------------------------------|--------------------------------|
--------------------------------|--------------------------------|
-----------5-----------------7--|-----------5--------------------|
-----7--------7-----7-----5-----|-----7--------7-----7-----5-----|
--5-----8--------5-----5--------|--5-----8--------5-----8-----7--|
--------------------------------|--------------------------------|


     PM       PM    PM    PM          PM       PM    PM    PM     
  E  E  E  E  E  E  E  E  E  E     E  E  E  E  E  E  E  E  E  E   
--------------------------------|--------------------------------|
--------------------------------|--------------------------------|
-----------5-----------------7--|-----------5--------------------|
-----7--------7-----7-----5-----|-----7--------7-----7-----5-----|
--5-----8--------5-----5--------|--5-----8--------5-----8-----7--|
--------------------------------|--------------------------------|


     PM       PM    PM    PM          PM       PM    PM    PM     
  E  E  E  E  E  E  E  E  E  E     E  E  E  E  E  E  E  E  E  E   
--------------------------------|--------------------------------|
--------------------------------|--------------------------------|
-----------5-----------------7--|-----------5--------------------|
-----7--------7-----7-----5-----|-----7--------7-----7-----5-----|
--5-----8--------5-----5--------|--5-----8--------5-----8-----7--|
--------------------------------|--------------------------------|


     PM       PM    PM    PM          PM       PM    PM    PM     
  E  E  E  E  E  E  E  E  E  E     E  E  E  E  E  E  E  E  E  E   
--------------------------------|--------------------------------|
--------------------------------|--------------------------------|
-----------5-----------------7--|-----------5--------------------|
-----7--------7-----7-----5-----|-----7--------7-----7-----5-----|
--5-----8--------5-----5--------|--5-----8--------5-----8-----7--|
--------------------------------|--------------------------------|


  E  E  E  E  E  E  E  E  S  S S  S    E  E  E  E  E  E  E  E  S  S S  S  
------------------------------------|------------------------------------|
------------------------------------|------------------------------------|
-----------5------------------------|-----------5------------------------|
-----7--------7-----7----------5h-7-|-----7--------7-----7----------5h-7-|
--5-----8--------5-----5--5h-8------|--5-----8--------5-----5--5h-8------|
------------------------------------|------------------------------------|


  E  E  E  E  E  E  E  E  S  S S  S    E  E  E  E  E  E  E  E  E  E   
------------------------------------|--------------------------------|
------------------------------------|--------------------------------|
-----------5------------------------|-----------5--------------5-----|
-----7--------7-----7----------5h-7-|-----7--------7-----7--------7--|
--5-----8--------5-----5--5h-8------|--5-----8--------5-----5--------|
------------------------------------|--------------------------------|


  E  E  E  E  E  E  E  E  S  S S  S    E  E  E  E  E  E  E  E  S  S S  S  
------------------------------------|------------------------------------|
------------------------------------|------------------------------------|
-----------5------------------------|-----------5------------------------|
-----7--------7-----7----------5h-7-|-----7--------7-----7----------5h-7-|
--5-----8--------5-----5--5h-8------|--5-----8--------5-----5--5h-8------|
------------------------------------|------------------------------------|


  E  E  E  E  E  E  E  E  S  S S  S    E  E  E  E  E  E  E  E  S  S S  S  
------------------------------------|------------------------------------|
------------------------------------|------------------------------------|
-----------5------------------------|-----------5------------------------|
-----7--------7-----7----------5h-7-|-----7--------7-----7----------5h-7-|
--5-----8--------5-----5--5h-8------|--5-----8--------5-----5--5h-8------|
------------------------------------|------------------------------------|


      PM PM PM PM     PM PM PM PM     PM PM  PM      
   E  S  S  S  S   E  S  S  S  S   E  S  S   E   E   
----------------------------------------------------|
----------------------------------------------------|
----------------------------------------------------|
----------------------------------------------------|
----------------------------------------------------|
--12--0--0--0--0--10--0--0--0--0--12--0--0--10--13--|


      PM PM PM PM     PM PM PM PM     PM PM     PM    
   E  S  S  S  S   E  S  S  S  S   E  S  S   E  S  S  
-----------------------------------------------------|
-----------------------------------------------------|
-----------------------------------------------------|
-----------------------------------------------------|
-----------------------------------------------------|
--12--0--0--0--0--10--0--0--0--0--12--0--0--10--0--0-|


      PM PM PM PM     PM PM PM PM     PM PM  PM      
   E  S  S  S  S   E  S  S  S  S   E  S  S   E   E   
----------------------------------------------------|
----------------------------------------------------|
----------------------------------------------------|
----------------------------------------------------|
----------------------------------------------------|
--12--0--0--0--0--10--0--0--0--0--12--0--0--10--13--|


      PM PM PM PM     PM PM PM PM     PM PM     PM    
   E  S  S  S  S   E  S  S  S  S   E  S  S   E  S  S  
-----------------------------------------------------|
-----------------------------------------------------|
-----------------------------------------------------|
-----------------------------------------------------|
-----------------------------------------------------|
--12--0--0--0--0--10--0--0--0--0--12--0--0--10--0--0-|


      PM PM PM PM     PM PM PM PM     PM PM PM PM      
   E  S  S  S  S   E  S  S  S  S   E  S  S  S  S   E   
------------------------------------------------------|
------------------------------------------------------|
------------------------------------------------------|
--12--------------10--------------12--------------13--|
--12--------------10--------------12--------------13--|
--12--0--0--0--0--10--0--0--0--0--12--0--0--0--0--13--|


      PM PM PM PM     PM PM PM PM     PM PM     PM PM  
   E  S  S  S  S   E  S  S  S  S   E  S  S   E  S  S   
------------------------------------------------------|
------------------------------------------------------|
------------------------------------------------------|
--12--------------10--------------12--------10--------|
--12--------------10--------------12--------10--------|
--12--0--0--0--0--10--0--0--0--0--12--0--0--10--0--0--|


      PM PM PM PM     PM PM PM PM     PM PM PM PM      
   E  S  S  S  S   E  S  S  S  S   E  S  S  S  S   E   
------------------------------------------------------|
------------------------------------------------------|
------------------------------------------------------|
--12--------------10--------------12--------------13--|
--12--------------10--------------12--------------13--|
--12--0--0--0--0--10--0--0--0--0--12--0--0--0--0--13--|


      PM PM PM PM     PM PM PM PM     PM PM     PM PM  
   E  S  S  S  S   E  S  S  S  S   E  S  S   E  S  S   
------------------------------------------------------|
------------------------------------------------------|
------------------------------------------------------|
--12--------------10--------------12--------10--------|
--12--------------10--------------12--------10--------|
--12--0--0--0--0--10--0--0--0--0--12--0--0--10--0--0--|


      PM PM PM PM     PM PM PM PM     PM PM PM PM      
   E  S  S  S  S   E  S  S  S  S   E  S  S  S  S   E   
------------------------------------------------------|
------------------------------------------------------|
------------------------------------------------------|
--12--------------10--------------12--------------13--|
--12--------------10--------------12--------------13--|
--12--0--0--0--0--10--0--0--0--0--12--0--0--0--0--13--|


      PM PM PM PM     PM PM PM PM     PM PM     PM PM  
   E  S  S  S  S   E  S  S  S  S   E  S  S   E  S  S   
------------------------------------------------------|
------------------------------------------------------|
------------------------------------------------------|
--12--------------10--------------12--------10--------|
--12--------------10--------------12--------10--------|
--12--0--0--0--0--10--0--0--0--0--12--0--0--10--0--0--|


      PM PM PM PM     PM PM PM PM     PM PM PM PM      
   E  S  S  S  S   E  S  S  S  S   E  S  S  S  S   E   
------------------------------------------------------|
--------------------------------------------------16--|
--------------------------------------------------15--|
--12--------------10--------------12--------------13--|
--12--------------10--------------12--------------13--|
--12--0--0--0--0--10--0--0--0--0--12--0--0--0--0--13--|


      PM PM PM PM     PM PM PM PM     PM PM     PM PM  
   E  S  S  S  S   E  S  S  S  S   E  S  S   E  S  S   
------------------------------------------------------|
--15--------------13--------------15--------13--------|
--14--------------12--------------14--------12--------|
--12--------------10--------------12--------10--------|
--12--------------10--------------12--------10--------|
--12--0--0--0--0--10--0--0--0--0--12--0--0--10--0--0--|


   E   E  E   Q    E   E   E  S   S  E   
----------------------------------------|
----------------------------------------|
----------------------------------------|
----------------------------------------|
--13--12-----12-------12--13--------15--|
---0---0------0--------0---0--0h-15-15--|


   E   E  E   Q    E   E   E  S   S  E   
----------------------------------------|
----------------------------------------|
----------------------------------------|
----------------------------------------|
--13--12-----12-------12--13--------15--|
---0---0------0--------0---0--0h-15-15--|


   E   E  E   Q    E   E   E  S   S  E  S   S  E   
--------------------------------------------------|
--------------------------------------------------|
--------------------------------------------------|
----------------------------------------------10--|
--13--12-----12-------12--13--------15--------10--|
---0---0------0--------0---0--0h-15-15--0h-10-10--|


  E  S S E  E  S S E  E  S S E  E  E  E   
-----------------------------------------|
-----------------------------------------|
-----------------------------------------|
--0------3--0------5--0------3--0--------|
--0------3--0------5--0------3--0--------|
--0----0-3--0----0-5--0----0-3--0--7--8--|


  E  E  E  E  E  E  E  E  E   E   E   E     Q    E  Q    E  Q    E  Q    E   
-----------------------------------------|----------------------------------|
-----------------------------------------|---------------8------------------|
-----------------------------------------|-------5-------7-------5----------|
-----------------------------10--10--10--|--0----3--0----5--0----3--0----0--|
--7--7--7--8--8--8--7--7--7--10--10--10--|--0----3--0----5--0----3--0----0--|
--3--3--3--3--3--3--5--5--5--10--10--10--|--0----3--0----5--0----3--0----0--|


  E  E  E  E  E  E  E  E  E   E   E   E     Q    E  Q    E  Q    E  Q    E   
-----------------------------------------|----------------------------------|
-----------------------------------------|---------------8------------------|
-----------------------------------------|-------5-------7-------5----------|
-----------------------------10--10--10--|--0----3--0----5--0----3--0----0--|
--7--7--7--8--8--8--7--7--7--10--10--10--|--0----3--0----5--0----3--0----0--|
--3--3--3--3--3--3--5--5--5--10--10--10--|--0----3--0----5--0----3--0----0--|


  E  E  E  E  E  E  E  E  E   E   E   E   
-----------------------------------------|
-----------------------------------------|
-----------------------------------------|
-----------------------------10--10--10--|
--7--7--7--8--8--8--7--7--7--10--10--10--|
--3--3--3--3--3--3--5--5--5--10--10--10--|


  PM PM   PM    PM   PM PM   PM    PM            
                                      |-3-|      
  S  S  S S  E  S  S S  S  S S  E  E  S S S S S  
------------------------------------------------|
------------------------------------------------|
------------------------------------------------|
-------------3------------------2---------------|
-------------3------------------2-----------3-5-|
--0--0----0--3--0----0--0----0--2--0--0-3-5-----|


  PM PM   PM    PM   PM PM   PM    PM            
                                      |-3-|      
  S  S  S S  E  S  S S  S  S S  E  E  S S S S S  
------------------------------------------------|
------------------------------------------------|
------------------------------------------------|
-------------3------------------2---------------|
-------------3------------------2-----------3-5-|
--0--0----0--3--0----0--0----0--2--0--0-3-5-----|


  PM PM   PM    PM   PM PM   PM    PM            
                                      |-3-|      
  S  S  S S  E  S  S S  S  S S  E  E  S S S S S  
------------------------------------------------|
------------------------------------------------|
------------------------------------------------|
-------------3------------------2---------------|
-------------3------------------2-----------3-5-|
--0--0----0--3--0----0--0----0--2--0--0-3-5-----|


  PM PM   PM    PM   PM PM   PM    PM  
  S  S  S S  E  S  S S  S  S S  E  E   
--------------------------------------|
--------------------------------------|
--------------------------------------|
-------------3------------------2-----|
-------------3------------------2-----|
--0--0----0--3--0----0--0----0--2--0--|


  |-3-| |-3-| |-3-| |-3-| |-3-| |-3-| |-3-| |-3-|  
  S S S S S S S S S S S S S S S S S S S S S S S S  
--------------------------------------------------|
--------------------------------------------------|
--------------------------------------------------|
--------------0-3-5-------------------0-3-5-------|
--------0-3-5-------0-3-5-------0-3-5-------0-3-5-|
--0-3-5-------------------0-3-5-------------------|


  |-3-| |-3-| |-3-| |-3-| |-3-| |-3-| |-3-| |-3-|                          
  S S S S S S S S S S S S S S S S S S S S S S S S                          
--------------------------------------------------|-------|-------|-------|
--------------------------------------------------|-------|-------|-------|
--------------------------------------------------|-------|-------|-------|
--------------0-3-5-------------------0-3-5-------|-------|-------|-------|
--------0-3-5-------0-3-5-------0-3-5-------0-3-5-|-------|-------|-------|
--0-3-5-------------------0-3-5-------------------|-------|-------|-------|


            
            
Suggest correction
Creating personal tab
Creating personal tab
You can edit any tab online and save it as your Personal.

You can edit, replace or remove any tab part or add personal notes – all changes will be seen only by you.

Personal tabs can be accessed anytime from any device, even offline.
Learn more »
comments
print report bad tab
1 comment total.
0 reply
Maitinin 19,543 Mar 16, 2007 10:52 AM

tell me why you cut the rhythm indications out... that's a cutting off a star of your rating, but great tab, 4 stars

guest
You may want to rate the tab now too:
select rating
Wanna post a correction for this tab? Suggest correction