Oops, an error
Loading. Please wait.

Terra tab

13 views 1 this week
no commentswrite comment
1 2 3 4 5
3 more votes to show rating
add to favorites
×
Save as Personal and add changes to this tab that will be seen only by you. Learn more ›
×
You can save this tab as Personal to edit and correct it or add notes. All changes will be seen only by you. Learn more »
launch autoscroll
font size
0
reset
how to read this tab
guitar tuner
edit
Autoscroll
slow
fast
+/-
esc
set tempo
stop
About this tab version
Good amount of echo and reverb is recommended on this one. It's actually a fun fingerpicking song, with some easy riffs in the middle of the song. Done in accordance with this link: https://www.youtube.com/watch?v=kj8k00BamU0. Was this info helpful? Yes No
[Intro]
E|--------------------------------------------------------------|
B|--------------------------------------------------------------|
G|--------4-----------4-----------4-----------4-----------4-----|
D|-----5-----5-----5-----5-----5-----5-----5-----5-----5-----5--|
A|--7-----------7-----------7-----------7-----------7-----------|
E|--------------------------------------------------------------|

[Verse 1]
E|--0-----------------2-----------------3--5--7--12--10--------------|
B|-----------0-----------------0-------------------------------0-----|
G|--------0-----------------0-------------------------------0--------|
D|--2--2--------2-----2--2--------2-----2--4--5--10--9---9--------9--|
A|-------------------------------------------------------------------|
E|-------------------------------------------------------------------|

E|--10-----------------10--------------------10--------------|
B|------------0------------------0---------------------0-----|
G|---------0------------------0---------------------0--------|
D|--9---9--------9-----9---9--------9--------9---9--------9--|
A|-----------------------------------------------------------|
E|-----------------------------------------------------------|

E|--8--7--5-----3-----5--------------5--------5-----|
B|--0--0--0--------------3--------------3-----------|
G|-----------------0--------0--------------0-----0--|
D|--------------------------------------------------|
A|--7--7--7-----3-----3--------------3--------------|
E|--------------------------------------------------|

E|--5--------5-----5--------5-----5--------5-----|
B|-----3--------------3--------------3-----------|
G|--------0-----0--------0-----0--------0-----0--|
D|-----------------------------------------------|
A|--3--------------3--------------3--------------|
E|-----------------------------------------------|

E|--7-----------------------------------------|
B|--------10---------10-----10---------10-----|
G|------------9----------9------9----------9--|
D|---------------10----------------10---------|
A|--8-----8-----------------8-----------------|
E|--------------------------------------------|

E|--7-----------------------------------------|
B|--------10---------10-----10---------10-----|
G|------------9----------9------9----------9--|
D|---------------10----------------10---------|
A|--8-----8-----------------8-----------------|
E|--------------------------------------------|

[Verse 2]
E|--0-----------------2-----------------3--5--7--12--10--------------|
B|-----------0-----------------0-------------------------------0-----|
G|--------0-----------------0-------------------------------0--------|
D|--2--2--------2-----2--2--------2-----2--4--5--10--9---9--------9--|
A|-------------------------------------------------------------------|
E|-------------------------------------------------------------------|

E|--10-----------------10--------------------10--------------|
B|------------0------------------0---------------------0-----|
G|---------0------------------0---------------------0--------|
D|--9---9--------9-----9---9--------9--------9---9--------9--|
A|-----------------------------------------------------------|
E|-----------------------------------------------------------|

E|--8--7--5-----3-----5--------------5--------5-----|
B|--0--0--0--------------3--------------3-----------|
G|-----------------0--------0--------------0-----0--|
D|--------------------------------------------------|
A|--7--7--7-----3-----3--------------3--------------|
E|--------------------------------------------------|

E|--7-----------------------------------------|
B|--------10---------10-----10---------10-----|
G|------------9----------9------9----------9--|
D|---------------10----------------10---------|
A|--8-----8-----------------8-----------------|
E|--------------------------------------------|

E|--7-----------------------------------------|
B|--------10---------10-----10---------10-----|
G|------------9----------9------9----------9--|
D|---------------10----------------10---------|
A|--8-----8-----------------8-----------------|
E|--------------------------------------------|

[Chorus]
E|--0--------------0--------------0--------------|
B|-----1--------------1--------------1-----------|
G|-----------0--------------0--------------0-----|
D|--------2-----2--------2-----2--------2-----2--|
A|--3--------------3--------------3--------------|
E|-----------------------------------------------|

E|--0--------0-----0--------0-----0--------0-----0--------0-----|
B|-----5--------------5--------------5--------------5-----------|
G|--------0--------------0--------------0--------------0--------|
D|--5-----------5--5-----------5--5-----------5--5-----------5--|
A|--------------------------------------------------------------|
E|--------------------------------------------------------------|

E|--0--------------0--------------0--------------0--------------|
B|-----7-----7--------7-----7--------7-----7--------7-----7-----|
G|--------7--------------7--------------7--------------7--------|
D|--0-----------0--0-----------0--0-----------0--0-----------0--|
A|--------------------------------------------------------------|
E|--------------------------------------------------------------|

[Break]
E|--0--------------0--------------0--------------0--------------|
B|-----0-----0--------0-----0--------0-----0--------0-----0-----|
G|--------0--------------0--------------0--------------0--------|
D|--2-----------2--2-----------2--2-----------2--2-----------2--|
A|--------------------------------------------------------------|
E|--------------------------------------------------------------|

E|--0--------------0--------------0--------------0--------------|
B|-----0-----0--------0-----0--------0-----0--------0-----0-----|
G|--------0--------------0--------------0--------------0--------|
D|--2-----------2--2-----------2--2-----------2--2-----------2--|
A|--------------------------------------------------------------|
E|--------------------------------------------------------------|

[Verse 3]
E|-------------------------------------------|
B|-------------------------------------------|
G|-------------------------------------------|
D|--5v--------------------------7v-----4-----|
A|----------------------------------------5--|
E|-------------------------------------------|

E|---------------------------------|
B|---------------------------------|
G|---------------------------------|
D|--4------------------------------|
A|-----5/7v--------7-----7-----7v--|
E|---------------------------------|

[Verse 5]
(no guitar in beginning, later it joins with the same pattern)
E|--0-----------------2-----------------3--5--7--12--10--------------|
B|-----------0-----------------0-------------------------------0-----|
G|--------0-----------------0-------------------------------0--------|
D|--2--2--------2-----2--2--------2-----2--4--5--10--9---9--------9--|
A|-------------------------------------------------------------------|
E|-------------------------------------------------------------------|

E|--10-----------------10--------------------10--------------|
B|------------0------------------0---------------------0-----|
G|---------0------------------0---------------------0--------|
D|--9---9--------9-----9---9--------9--------9---9--------9--|
A|-----------------------------------------------------------|
E|-----------------------------------------------------------|

E|--8--7--5-----3-----5--------------5--------5-----|
B|--0--0--0--------------3--------------3-----------|
G|-----------------0--------0--------------0-----0--|
D|--------------------------------------------------|
A|--7--7--7-----3-----3--------------3--------------|
E|--------------------------------------------------|

E|--7-----------------------------------------|
B|--------10---------10-----10---------10-----|
G|------------9----------9------9----------9--|
D|---------------10----------------10---------|
A|--8-----8-----------------8-----------------|
E|--------------------------------------------|

E|--7-----------------------------------------|
B|--------10---------10-----10---------10-----|
G|------------9----------9------9----------9--|
D|---------------10----------------10---------|
A|--8-----8-----------------8-----------------|
E|--------------------------------------------|

E|--0-----------------2-----------------3--5--7--12--10--------------|
B|-----------0-----------------0-------------------------------0-----|
G|--------0-----------------0-------------------------------0--------|
D|--2--2--------2-----2--2--------2-----2--4--5--10--9---9--------9--|
A|-------------------------------------------------------------------|
E|-------------------------------------------------------------------|

E|--0--------------0--------------0--------------|
B|-----1--------------1--------------1-----------|
G|-----------0--------------0--------------0-----|
D|--------2-----2--------2-----2--------2-----2--|
A|--3--------------3--------------3--------------|
E|-----------------------------------------------|

[Chorus]
E|--0--------0-----0--------0-----0--------0-----0--------0-----|
B|-----5--------------5--------------5--------------5-----------|
G|--------0--------------0--------------0--------------0--------|
D|--5-----------5--5-----------5--5-----------5--5-----------5--|
A|--------------------------------------------------------------|
E|--------------------------------------------------------------|

E|--0--------------0--------------0--------------0--------------|
B|-----7-----7--------7-----7--------7-----7--------7-----7-----|
G|--------7--------------7--------------7--------------7--------|
D|--0-----------0--0-----------0--0-----------0--0-----------0--|
A|--------------------------------------------------------------|
E|--------------------------------------------------------------|

E|--0--------------0--------------0--------------0--------------|
B|-----0-----0--------0-----0--------0-----0--------0-----0-----|
G|--------0--------------0--------------0--------------0--------|
D|--2-----------2--2-----------2--2-----------2--2-----------2--|
A|--------------------------------------------------------------|
E|--------------------------------------------------------------|

E|--0--------0-----0--------0-----0--------0-----0--------0-----|
B|-----5--------------5--------------5--------------5-----------|
G|--------0--------------0--------------0--------------0--------|
D|--5-----------5--5-----------5--5-----------5--5-----------5--|
A|--------------------------------------------------------------|
E|--------------------------------------------------------------|

E|--0--------------0--------------0--------------0--------------|
B|-----7-----7--------7-----7--------7-----7--------7-----7-----|
G|--------7--------------7--------------7--------------7--------|
D|--0-----------0--0-----------0--0-----------0--0-----------0--|
A|--------------------------------------------------------------|
E|--------------------------------------------------------------|

E|--0--------------0--------------0--------------0--------------|
B|-----0-----0--------0-----0--------0-----0--------0-----0-----|
G|--------0--------------0--------------0--------------0--------|
D|--2-----------2--2-----------2--2-----------2--2-----------2--|
A|--------------------------------------------------------------|
E|--------------------------------------------------------------|

[Ending]
E|--------------------------------------------------|
B|--------0-----------0-----------0-----------0-----|
G|-----------0-----------0-----------0-----------0--|
D|-----2-----------2-----------2-----------2--------|
A|--3-----------3-----------3-----------3-----------|
E|--------------------------------------------------|

E|--2--------2--2--------2--2--------2--2--------2v--|
B|-----3-----------3-----------3-----------3---------|
G|--------2-----------2-----------2-----------2------|
D|---------------------------------------------------|
A|---------------------------------------------------|
E|---------------------------------------------------|

E|--0-----------------2-----------------3--5--7--12--10--------------|
B|-----------0-----------------0-------------------------------0-----|
G|--------0-----------------0-------------------------------0--------|
D|--2--2--------2-----2--2--------2-----2--4--5--10--9---9--------9--|
A|-------------------------------------------------------------------|
E|-------------------------------------------------------------------|

E|--10-----------------10--------------------10--------------|
B|------------0------------------0---------------------0-----|
G|---------0------------------0---------------------0--------|
D|--9---9--------9-----9---9--------9--------9---9--------9--|
A|-----------------------------------------------------------|
E|-----------------------------------------------------------|

E|--8--7--5-----3-----5--------------5--------5-----|
B|--0--0--0--------------3--------------3-----------|
G|-----------------0--------0--------------0-----0--|
D|--------------------------------------------------|
A|--7--7--7-----3-----3--------------3--------------|
E|--------------------------------------------------|

E|--7-----------------------------------------|
B|--------10---------10-----10---------10-----|
G|------------9----------9------9----------9--|
D|---------------10----------------10---------|
A|--8-----8-----------------8-----------------|
E|--------------------------------------------|

E|--7-----------------------------------------|
B|--------10---------10-----10---------10-----|
G|------------9----------9------9----------9--|
D|---------------10----------------10---------|
A|--8-----8-----------------8-----------------|
E|--------------------------------------------|

E|--0--------------0--------------0--------------0--------------|
B|-----0-----0--------0-----0--------0-----0--------0-----0-----|
G|--------0--------------0--------------0--------------0--------|
D|--2-----------2--2-----------2--2-----------2--2-----------2--|
A|--------------------------------------------------------------|
E|--------------------------------------------------------------|



************************************

| /  Slide up
| v  

************************************

            
            
Suggest correction
Creating personal tab
Creating personal tab
You can edit any tab online and save it as your Personal.

You can edit, replace or remove any tab part or add personal notes – all changes will be seen only by you.

Personal tabs can be accessed anytime from any device, even offline.
Learn more »
Give kudos to tab author, rate the tab!
1 2 3 4 5
comments
print report bad tab
guest
You may want to rate the tab now too:
select rating
Wanna post a correction for this tab? Suggest correction