Oops, an error
Loading. Please wait.

54 46 Thats My Number Bass Tab

version 2
version 2

Whole song

19,762 views 57 this week
1 commentread comment
1 2 3 4 5
excellent!
x 5
add to favorites
launch autoscroll
font size
0
reset
guitar tuner
Autoscroll
slow
fast
+/-
esc
set tempo
stop
Help us to improve Ultimate-Guitar.com Take our survey!
×
Difficulty
novice
Bass tabs by Riller.


Standard tuning, no capo.


e|--------------------------------------------|
B|--------------------------------------------|
G|--------------------------------------------|
D|--------5-3-------------3-------------------|
A|------------5-3-3--3-5----------------------|
E|---3-3--------------------------------------|

Play that throughout the most of the song.

When get gets to the ''Give it to me, one time.....'' part, play:

e|--------------------------------------------|
B|--------------------------------------------|
G|--------------------------------------------|
D|--------------------------------------------|
A|--------------------------------------------|
E|----3----33----333----3333------------------|

Everytime the crowd sais ''Hey''

Afterwards, just continue the first part.
Suggest correction
comments
print report bad tab
1 comment total.
0 reply
vh1freak 16 wrote on February 7 2013, 07:19 pm

Pretty sure that on the breakdown it's a 3 on the A, so a C (not 3 on the E for a G as written). On the second time through the breakdown, it moves up to 5 (D) halfway through.

guest
You may want to rate the tab now too:
select rating
Please do not post tabs as comments. Select "correction" instead!