Oops, an error
Loading. Please wait.

54 46 Thats My Number Bass Tab

version 2
version 2

Whole song

20,953 views 42 this week
2 commentsread comments
1 2 3 4 5
x 5
add to favorites
launch autoscroll
font size
0
reset
guitar tuner
×
Best way to learn
"54 46 Thats My Number"
Autoscroll
slow
fast
+/-
esc
set tempo
stop
Difficulty
novice
Bass tabs by Riller.


G|--------------------------------------------|
D|-5-5--5-3-------------3---------------------|
A|-----------5-3-3--3-5-----------------------|
E|--------------------------------------------|

Play that throughout the most of the song.

When get gets to the ''Give it to me, one time.....'' part, play:

G|--------------------------------------------|
D|--------------------------------------------|
A|-3---33---333---3333------------------------|
E|--------------------------------------------|

Everytime the crowd sais ''Hey''

Afterwards, just continue the first part.

G|--------------------------------------------|
D|-5-5--5-3-------------3---------------------|
A|-----------5-3-3--3-5-----------------------|
E|--------------------------------------------|

The second time he gets to the ''Give it to me, one time.....'' part, play:

G|--------------------------------------------|
D|--------------------------------------------|
A|-3---33---55555555--------------------------|
E|--------------------------------------------|
Suggest correction
comments
print report bad tab
2 comments total.
0 reply
vh1freak 16 Feb 07, 2013 02:19 PM

Pretty sure that on the breakdown it's a 3 on the A, so a C (not 3 on the E for a G as written). On the second time through the breakdown, it moves up to 5 (D) halfway through.

0 reply
majskanoner 65 Jan 28, 2017 09:33 AM

I think it's played an octave higher, in the versions I've heard, this sounds way too low, though correct.

guest
You may want to rate the tab now too:
select rating
Wanna post a correction for this tab? Suggest correction