Oops, an error
Loading. Please wait.

Pressure Drop Bass Tab

version 2
version 2

Whole song

Interactive

11,780 views 33 this week
2 commentsread comments
1 2 3 4 5
x 7
add to favorites
launch autoscroll
font size
0
reset
guitar tuner
×
Best way to learn
"Pressure Drop"
Autoscroll
slow
fast
+/-
esc
set tempo
stop
Author
Difficulty
Very easy song, and great fun to play! It's 100% correct, and any problems email me at
boavspython@googlemail.com


Intro
G|----------------------------|----------------------------|
D|----------------------------|--3-6-----------------3-6---|
A|--3-6-----------------3-6---|4-------------------4-------|  x2
E|4-------------------4-------|----------------------------|


Riff 1
G|----------------------------|----------------------------|
D|------------------5-8-------|------------------3-6-------|
A|--3-6-----3-6---6-----------|--3-6-----3-6---4-----------|  x3
E|4-------4-------------------|4-------4-------------------|


Riff 2
G|----------------------------|----------------------------|
D|------------------5-8-------|--3-6-----3-6---------------|
A|--3-6-----3-6---6-----------|4-------4---------3-6-------|  x21 (Until fade out)
E|4-------4-------------------|----------------4-----------|


Have fun!
Suggest correction
comments
print report bad tab
2 comments total.
0 reply
lollo96 10 May 08, 2013 10:24 AM

perfect tab!!

0 reply
Cormacsmall 10 Jan 10, 2014 06:34 AM

So much fun to play. :)

guest
You may want to rate the tab now too:
select rating
Wanna post a correction for this tab? Suggest correction