Oops, an error
Loading. Please wait.

Dancing In The Moonlight Tab

version 2
version 2

Whole song

Interactive

15,951 views 1 this week
no commentswrite comment
1 2 3 4 5
1 last vote to show rating
add to favorites
launch autoscroll
font size
0
reset
how to read this tab
guitar tuner
Autoscroll
slow
fast
+/-
esc
set tempo
stop
Help us to improve Ultimate-Guitar.com Take our survey!
×
Difficulty
novice
Main riff

awesome song!!!! this is a fairly accurate tab a fast tempo
email me wiv any questions at:olliebarnes@hotmail.co.uk


-------15-15-13|15-18------------------|------------|
-----13--------|-----16-13--13---------|------------|
---13----------|----------15--15-13-15-|-13--13-15--|
-15------------|-----------------------|---15-----13|
---------------|-----------------------|------------|
---------------|-----------------------|------------|




solo
18----15,-15-13,-13------------------------------------|
------------------15,-15-13,-13-----16-13--13----------|
-------------------------------15-13-----15--15--13----|
-----------------------------------------------------15|
-------------------------------------------------------|
-------------------------------------------------------|

Tabbed by Ollie Barnes
Suggest correction
Give kudos to tab author, rate the tab!
1 2 3 4 5
comments
print report bad tab
guest
You may want to rate the tab now too:
select rating
Wanna post a correction for this tab? Suggest correction