Oops, an error
Loading. Please wait.

Dancing In The Moonlight Tab

version 3
version 3

Whole song

Interactive

15,678 views 6 this week
no commentswrite comment
1 2 3 4 5
x 8
add to favorites
launch autoscroll
font size
0
reset
how to read this tab
guitar tuner
Autoscroll
slow
fast
+/-
esc
set tempo
stop
Help us to improve Ultimate-Guitar.com Take our survey!
×
Author
Capo
3rd fret
Capo 3rd 

 \= slide

Compare it with the song and it will sound the same.


e|---------------0---0-------------3-------------------|
B|----------1------------3----3/5-----5---3---1--------|
G|------2----------------------------------------------|
D|--3--------------------------------------------------|
A|--------------------------------------------3--------|
E|-----------------------------------------------------|

  --0----------0-------------------------------------|
  -------3-----------3------1---------------1--------|
  --------------------------2----2-------2-----------|
  --------------------------2--------2---------------|
  --------------------------0------------------------|
  ---------------------------------------------------|
Suggest correction
comments
print report bad tab
guest
You may want to rate the tab now too:
select rating
Wanna post a correction for this tab? Suggest correction