Oops, an error
Loading. Please wait.

Dancing In The Moonlight chords

version 6
version 6

Whole song

Interactive

976 views 15 this week
no commentswrite comment
1 2 3 4 5
x 4
add to favorites
×
Save as Personal and add changes to this tab that will be seen only by you. Learn more ›
×
You can save this tab as Personal to edit and correct it or add notes. All changes will be seen only by you. Learn more »
launch autoscroll
font size
0
reset
transpose
0
reset
simplify chords
display chords
guitar tuner
edit
Autoscroll
slow
fast
+/-
esc
set tempo
stop
About this tab version
I have the correct intro, which is missing out. Was this info helpful? Yes No
Strumming
There is no strumming pattern for this song yet. and get +5 IQ
-------------------------------------------------------------------------------
                             Dancing In The Moonlight - Toploader
-------------------------------------------------------------------------------
Tabbed by: Henrik

The intro is relative to the capo

Capo: 3rd fret

Tuning: Standard

e|-----------0-0----0-3-0--------0-----0--------------------0-0-----0-3-0----|
B|--------1------3~-------1---1-----3----3--1----1--------1-------3--------1-|
G|-----2---------------------------------------2-------2---------------------|
D|--3----------------------------------------------3-------------------------|
A|---------------------------------------------------------------------------|
E|---------------------------------------------------------------------------|

e|----0------0---------------------------------------------------------------|
B|-1-----3~-----3--1---------------------------------------------------------|
G|--------------------2------------------------------------------------------|
D|---------------------------------------------------------------------------|
A|---------------------------------------------------------------------------|
E|---------------------------------------------------------------------------|

In between the fills you repeat the intro again, also during chorus.

Intro : Dm      G      C   Em7   Am x2  

              Dm             G           C       Em7         Am
We get it on most every night… when that moon is big and bright
            Dm             G             C       Em7       Am
It's a supernatural delight… everybody's dancin' in the moonlight

Fill:  Dm      G      C   Em7   Am
(Play intro again)

          Dm                  G             C         Em7        Am
Everybody here is out of sight , they don't bark and they don't bite
                 Dm                      G                C      Em7
They keep things loose they keep it tight,    everybody's dancin' in the 
Am
moonlight


Dm                      G             C       Em7         Am 
Dancin' in the moonlight, everybody's feeling warm and bright
            Dm                    G             C       Em7     Am
It's such a fine and natural sight, everybody's dancin' in the moonlight


Fill :  Dm      G      C  Em7  Am
(Play intro again)
            Dm                     G             C         Em7    Am
We like our fun and we never fight,      you can't dance and stay uptight
             Dm            G               C       Em7    Am
It's a supernatural delight, everybody was dancin' in the moonlight


Dm                      G             C       Em7         Am 
Dancin' in the moonlight, everybody's feeling warm and bright
            Dm                    G             C       Em7     Am
It’s such a fine and natural sight, everybody's dancin' in the moonlight

Fill :     Dm        G      C  Em7  Am x2

SYNTH SOLO

e|---------------------------------------------------------------------------|
B|--1/8~~--8/10--8--------------------------------8-10-8---------------------|
G|------------------10---10--8---10--6---8--6--------------10-6--8~--2~------|
D|--------------------------------------------8~-----------------------------|
A|---------------------------------------------------------------------------|
E|---------------------------------------------------------------------------|

          Dm                 G           C       Em7     Am
We get it on most every night.. when that moon is big and bright
            Dm             G             C       Em7    Am
It's a supernatural delight.. everybody's dancin' in the moonlight


Dm                      G             C       Em7         Am 
Dancin' in the moonlight, everybody's feeling warm and bright
            Dm                    G             C       Em7     Am
It's such a fine and natural sight, everybody's dancin' in the moonlight


Repeat to fade


You can also play the synth solo on another fret 

e|--3~~--3/5--3----------------------------3-5-3----------------------------|
B|---------------5---5--3---5--1---3--1-----------5-1--3~-------------------|
G|--------------------------------------2~----------------2~----------------|
D|--------------------------------------------------------------------------|
A|--------------------------------------------------------------------------|
E|--------------------------------------------------------------------------|


Solo not relative to capo

e|---------------------------------------------------------------------------|
B|--3/11~~--11/13--11---------------------------11-13-11---------------------|
G|--------------------12--12-10--12-8--10-8---------------12-8--10~-5~-------|
D|------------------------------------------10~------------------------------|
A|---------------------------------------------------------------------------|
E|---------------------------------------------------------------------------|

************************************

| /   slide up
| \   slide down
| h   hammer-on
| p   pull-off
| ~   vibrato
| +   harmonic
| x   Mute note
| b   Bend
| pb  Pre-bend
| br  Bend release
| pbr Pre-bend release
| brb Bend release bend

************************************
Suggest correction
Creating personal tab
Creating personal tab
You can edit any tab online and save it as your Personal.

You can edit, replace or remove any tab part or add personal notes – all changes will be seen only by you.

Personal tabs can be accessed anytime from any device, even offline.
Learn more »
comments
print report bad tab
guest
You may want to rate the tab now too:
select rating
Wanna post a correction for this tab? Suggest correction