Oops, an error
Loading. Please wait.

En El Bosque De La China Tab

76 views 1 this week
no commentswrite comment
1 2 3 4 5
3 more votes to show rating
add to favorites
launch autoscroll
font size
0
reset
how to read this tab
guitar tuner
×
Best way to learn
"En El Bosque De La China"
Autoscroll
slow
fast
+/-
esc
set tempo
stop
Intro
Dm

Las 3 melodías se tocan en orden consecutivo,
para formar la introducción.


1er. Melodía
E||---------9--10--9--------------------------|
B||--9--10------------11--10--9---------------|
G||------------------------------10---9--7----|
D||-------------------------------------------|
A||-------------------------------------------|
E||-------------------------------------------|

2da. Melodía
E||--10--10--8----------------------------------8--10----|
B||-------------10--8--------------------8--10-----------|
G||---------------------10----7--7---10------------------|
D||------------------------------------------------------|
A||------------------------------------------------------|
E||------------------------------------------------------|

3er. Melodía
E||-------------------------------10----|
B||----------------8------8--10---------|
G||--7------7--10-----10----------------|
D||-----10------------------------------|
A||-------------------------------------|
E||-------------------------------------|

      Dm
En un bosque de la china,
                  A
La chinita se perdió,
     Gm           Dm         A             Dm
Como yo andaba perdido nos encontramos los dos.

      Dm
En un bosque de la china,
                  A
La chinita se perdió,
     Gm           Dm         A             Dm
Como yo andaba perdido nos encontramos los dos.


[Coro]
        D        B
Era de noche
        Em     A
y la chinita
      Em             A              D
Tenía miedo, miedo tenia de andar solita

           D     D7
Anduvo un rato
         G
y se sentó
            D                 A             D
Junto a la china, junto a la china me senté yo

        D        B
Era de noche
        Em     A
y la chinita
      Em             A              D
Tenía miedo, miedo tenia de andar solita
           D     D7
Anduvo un rato
         G
y se sentó
            D                 A             D
Junto a la china, junto a la china me senté yo


         A                Dm
Y yo que si... Y ella que no...
         A                Dm     D7
Y yo que si... Y ella que no...
           Gm
Y al cabo fuimos...
           Dm
Y al cabo fuimos...
           A
Y al cabo fuimos,
           Dm
de una opinión.


         Dm
Bajo el cielo de la china,
                  A
La chinita se sentó,
     Gm             Dm          A         Dm
Y la luna en ese instante indiscreta la beso.

         Dm
Bajo el cielo de la china,
                  A
La chinita se sentó,
     Gm             Dm          A         Dm
Y la luna en ese instante indiscreta la beso.


[Coro]
          D         B
Luna envidiosa,
          Em      A
luna infortuna
      Em             A             D
Tenía celos, celos tenia, de mi fortuna

           D       D7
Anduvo un rato
         G
y se sentó
             D                 A             D
Junto a la china, junto a la china me senté yo

          D         B
Luna envidiosa,
          Em      A
luna infortuna
      Em             A             D
Tenía celos, celos tenia, de mi fortuna

           D       D7
Anduvo un rato
         G
y se sentó
             D                 A             D
Junto a la china, junto a la china me senté yo


         A                Dm
Y yo que si... Y ella que no.
         A                Dm     D7
Y yo que si... Y ella que no.
           Gm
Y al cabo fuimos...
           Dm
Y al cabo fuimos...
           A
Y al cabo fuimos,
           Dm
De una opinión.


      Dm
En un bosque de la china,
                  A
La chinita se perdió,
     Gm           Dm         A             Dm
Como yo andaba perdido nos encontramos los dos.

      Dm
En un bosque de la china,
                  A
La chinita se perdió,
     Gm           Dm         A             Dm   A   Dm
Como yo andaba perdido nos encontramos los dos.
Suggest correction
Give kudos to tab author, rate the tab!
1 2 3 4 5
comments
print report bad tab
guest
You may want to rate the tab now too:
select rating
Wanna post a correction for this tab? Suggest correction