Oops, an error
Loading. Please wait.

Ella Chords

9 views 1 this week
no commentswrite comment
1 2 3 4 5
3 more votes to show rating
add to favorites
launch autoscroll
font size
0
reset
transpose
0
reset
display chords
guitar tuner
Autoscroll
slow
fast
+/-
esc
set tempo
stop
Help us to improve Ultimate-Guitar.com Take our survey!
×
INTRO:X2

E----------------------------------------
B----------------------------------------
G----------------------------------------
D---------4-5--7--5-45455454-------------
A-----55----------------------5----------
E----------------------------------------

E----------------------------------------
B----------------------------------------
G----------------------------------------
D----------------------------------------
A----------4-5--7--545------235----------
E------55-----------------33-------------


D
NO PUDE COMPRENDER QUE FUE LO QUE PASO
A                     G
YO ESTABA SOLO Y ESA CHICA SE ACERCO
D
ME DIJO ALGO AL OIDO QUE NO PUDE ENTENDER
      A                       G
YO ESTABA ALGO MAREADO Y NO PARABA DE BEBER

   D                 B
LA LLEVE PARA EL HOTEL, LA LLEVE PARA EL HOTEL
     G              G  A       D
NOS PUSIMOS A COJER Y LA PASE MUY BIEN


E----------------------------------------
B----------------------------------------
G----------------------------------------
D---------4-5--7--5-45455454-------------
A-----55----------------------5----------
E----------------------------------------

E----------------------------------------
B----------------------------------------
G----------------------------------------
D----------------------------------------
A----------4-5--7--545------235----------
E------55-----------------33-------------


X2

-------------------------------------------
*******************************************
-------------------------------------------

Bueno esta es la version original de Ella la anterior estaba bien
pero tenia mal colocadas las notas y no les iban a dar los tiempos
por cualquier sugerencia y si kieren alguna otra cancion
mandenme un msj a franpira_10@ y aguante el punkrock!
Suggest correction
Give kudos to tab author, rate the tab!
1 2 3 4 5
comments
print report bad tab
guest
You may want to rate the tab now too:
select rating
Wanna post a correction for this tab? Suggest correction