Oops, an error
Loading. Please wait.

La Hipocrecia Tab

25 views 1 this week
no commentswrite comment
1 2 3 4 5
3 more votes to show rating
add to favorites
launch autoscroll
font size
0
reset
how to read this tab
guitar tuner
Autoscroll
slow
fast
+/-
esc
set tempo
stop
Help us to improve Ultimate-Guitar.com Take our survey!
×
(toda la cancion va igual)

-Intro Guitarra-

1 ---------------------------------------------------------5-5-
2 ---------------------------------------------------------5-5-
3 6-6---6-6----------------------6-6---6-6---------------------
4 ---7-----7-----------------7-------7-----7-------------------
5 ----7-----7-9-9-7-9-11--11--7-------7-----7--9-9-11-11-7-----
6 -------------------------------------------------------------

-Base-

LA            RE           MI         LA
La hipocresía en ésta vida vas a conocer
Toda esta gente, que está contenta cuando no estás bien.
Falsas palabras, falsos consejos, falsa es tu amistad.
Falsos abrazos y sentimientos. Ya no aguanto más.


-ESTRIBILLO-


A quién le importaa? A quien le importa?
A quién le importa si hoy voy a beber...
A quién le importaa? A quien le importa?


-Arreglo Guitarra sobre ESTRIBILLO-


1 -------------------------------------------
2 -------------------------------------------
3 -------------------------------------------
4 -------------4-2--4-2----------------------
5 -------4-5-7----------4-4-2-2-0-0-4--------
6 -5-5-7-------------------------------------

-Solo guitarra-

1 -------------------------------------------
2 -------------------10-9-10-9---------------
3 -6--6----9-7-6-7--9----9----9--9-7-6-------
4 --7--7-------------------------------7-----
5 ---7--7------------------------------------
6 -------------------------------------------


1 -------------------------------------------
2 -------------------10-9-10-9---12-10-9-10--
3 -6--6----9-7-6-7--9----9----9--------------
4 --7--7-------------------------------------
5 ---7--7------------------------------------
6 -------------------------------------------

Repite Base y ESTRIBILLO


wenas lokos por el punk
aka ando de nuevo
les dejo este temaso
espero q la pasen bien loko he surte
resaka punk rock (san luis)
Suggest correction
Give kudos to tab author, rate the tab!
1 2 3 4 5
comments
print report bad tab
guest
You may want to rate the tab now too:
select rating
Wanna post a correction for this tab? Suggest correction