Oops, an error
Loading. Please wait.

Nada Que Hacer Bass Tab

version 1
version 1

Whole song

10 views 1 this week
no commentswrite comment
1 2 3 4 5
3 more votes to show rating
add to favorites
launch autoscroll
font size
0
reset
guitar tuner
×
Best way to learn
"Nada Que Hacer"
Autoscroll
slow
fast
+/-
esc
set tempo
stop
INTRO
G|-----------------------------------------------
D|------4-----4---5--------4------4---5----------
A|---5----5-5---5--------5---5--5---5------------
E|-----------------------------------------------

G|-----11------11--------------------------------
D|--12----12-12---12--16-------------------------
A|-----------------------------------------------
E|-----------------------------------------------

G|------11--------11-------14-14-14-13-----------
D|---12----12-12-----12-----------------16--14---
A|-----------------------------------------------
E|-----------------------------------------------
Suggest correction
Give kudos to tab author, rate the tab!
1 2 3 4 5
comments
print report bad tab
guest
You may want to rate the tab now too:
select rating
Wanna post a correction for this tab? Suggest correction