Oops, an error
Loading. Please wait.

Renacer Bass Tab

2 views 1 this week
no commentswrite comment
1 2 3 4 5
3 more votes to show rating
add to favorites
launch autoscroll
font size
0
reset
guitar tuner
×
Best way to learn
"Renacer"
Autoscroll
slow
fast
+/-
esc
set tempo
stop
Quiero crear un puente entre tus ojos y los mios,
tener un nuevo sueño pues los otros han muerto,
cambiar la piel de mi alma, ser el que nunca he sido
ser libre de verdad.
Soñando con la posibilidad de amar
no es tan lejana, con un ojo en el hoy
y otro en el mañana.

Mi vida es una ilusión
la muerte, mi realidad
morir para renacer
morir para renacer
morir para renacer

RECORDAR: PARA TOCARLO BIEN HAY QUE ESCUCHAR EL TEMA ANTES
PARA SABER LOS TIEMPOS

Quiero crear un puente....ser libre de verdad
G|--------------------------------------------------|
D|--------------------------------------------------|
A|-----5-----------5-5------------------------------|
E|--------5---3---------5-----3---5-----------------|

soñando con la posibilidad......y otro en el mañana
G|-------------------------------------------------|
D|-------------------------------------------------|
A|-------5-------------5-5-------------------------|
E|-----------5---3----------5----3---5-------------|

mi vida es una ilusion
G|------------------------------------------------|
D|------------------------------------------------|
A|------------5-----------------------5-----------|
E|-----3------------5-------3----5----------------|

mooorir para renacer...

G|------------------------------------------------|
D|------------------------------------------------|
A|---------------5------------5-------------------|
E|---3------5--------3----5-----------------------|

MARIANO PODESTA
AGUANTE TOPOS!!!!
Suggest correction
Give kudos to tab author, rate the tab!
1 2 3 4 5
comments
print report bad tab
guest
You may want to rate the tab now too:
select rating
Wanna post a correction for this tab? Suggest correction