Oops, an error
Loading. Please wait.

Tiempo Chords

1 view 1 this week
no commentswrite comment
1 2 3 4 5
3 more votes to show rating
add to favorites
launch autoscroll
font size
0
reset
transpose
0
reset
simplify chords
display chords
guitar tuner
Autoscroll
slow
fast
+/-
esc
set tempo
stop
Help us to improve Ultimate-Guitar.com Take our survey!
×
la otra transkipcion le hacian falta unas pekeñas kosillas,letra
y kn pekeños errores........aki sta mi version.......

1 ---------------------------------
2 ---------------------------------
3 ---------------------------------
4 0-0-2-2-3-3-2-2-0-0-2-2--44-5---- 3 veces(junto kn la letra)
5 -3-3-3-3-3-3-3-3-3-3-3-3-55-3----
6 ---------------------------------


Hoy que ya no puedo negar todo lo que siento

una nueva etapa nace para mí.

Hoy que tengo ojos solo solo para ésto

nunca nadie antes me hizo tan feliz.

-Al concluir hace esta parte-

1 ----------------------------------------------------- 1
2 ----------------------------------------------------- 2
3 --------------------------------2-------------------- 3
4 3-3-3-3-2-2-2-2-0-0-0-0-2-0-3-3--3-2-2-2-2-0-0-0-0--- 4
5 ---------------------------3-----------------------3- 5
6 ----------------------------------------------------- 6

-Estibillo-

C5           E5         E#5        E5
Si tan solo vieras como paso mi tiempo

C5        E5          D5     C5
una nueva luz brilla sobre mi

C5           E5         E#5        E5
ya no pierdo el dia rekordando,recuerdos

C5        E5          D5           C5
veo a las personas ke no eran para mi


F5             C5    G5              C5
Día, tarde y noche nunca duermo sólo pienso,

F5          C5   G5        C5
todo lo que hago lo hago por tí.


-El intro pero kn distorcion y PM-


1 ---------------------------------
2 ---------------------------------
3 ---------------------------------     Palm mute.
4 0-0-0-0-2-2-2-2-3-3-3-3-2-2-2-2--
5 3-3-3-3-3-3-3-3-3-3-3-3-3-3-3-3--
6 ---------------------------------

1 ---------------------------------
2 ---------------------------------
3 ---------------------------------
4 0-0-0-0-2-2-2-2-44-5-------------       P.M.
5 3-3-3-3-3-3-3-3-55-3-------------
6 ---------------------------------

Hoy que ya no puedo negar todo lo que siento

una nueva etapa nace para mí.

Hoy que tengo ojos solo solo para ésto

nunca nadie antes me hizo tan feliz.


LUEGO SE REPITE STO 5 VECES(se repite 4 veces kn las quintas y
la ultima kn el intro)

F5             C5    G5              C5
Día, tarde y noche nunca duermo sólo pienso,

F5          C5   G5        C5
todo lo que hago lo hago por tí.

bueno ps ahi se las dejo esta papa kualkier aklaracion
ps se joden me vale gorro.......
Suggest correction
Give kudos to tab author, rate the tab!
1 2 3 4 5
comments
print report bad tab
guest
You may want to rate the tab now too:
select rating
Wanna post a correction for this tab? Suggest correction