Oops, an error
Loading. Please wait.

Ya Es Muy Tarde Chords

by Topos
31 views 1 this week
no commentswrite comment
1 2 3 4 5
3 more votes to show rating
add to favorites
launch autoscroll
font size
0
reset
transpose
0
reset
simplify chords
display chords
guitar tuner
×
Best way to learn
"Ya Es Muy Tarde"
Autoscroll
slow
fast
+/-
esc
set tempo
stop
INTRO:A-B-D-E


  A        B       D         E
1------------------6/7-7-6-7-9/10-9-
2-6/777777-8/999999-----------------
3-----------------------------------
4-----------------------------------
5-----------------------------------
6-----------------------------------X 2

1--7-7-6-6-4-222222-0-0-2-2-4-2-
2-7-----------------------------
3-------------------------------
4-------------------------------
5-------------------------------
6-------------------------------

1--7-7-6-6-4-222222-7-6-9-7-
2-7-------------------------
3---------------------------
4---------------------------
5---------------------------
6---------------------------


D          E            G#/A  G#/A
NI QUIZAS HOY PUEDA DORMIR
Y NO VOLVER A REPETIR
SIEMPRE ES EL MISMO HERROR
YA NO SOPORTO VER EL SOL
A               B
YA ES MUY TARDE,YA ES MUY TARDE
D               E
YA ES MUY TARDE,YAA AH
YA ES MUY TARDE,YA ES MUY TARDE
YA ES MUY TARDE,YAA AH
A             B
NO SE SI FRENAR
D             E
NOSE SI SEFGUIR
NO SE SI FRENAR
NOSE SI SEFGUIR

D          E            G#/A  G#/A
NI QUIZAS HOY PUEDA DORMIR
Y NO VOLVER A REPETIR
SIEMPRE ES EL MISMO HERROR
YA NO SOPORTO VER EL SOL

YA ES MUY TARDE,YA ES MUY TARDE
YA ES MUY TARDE,YAA AH
YA ES MUY TARDE,YA ES MUY TARDE
YA ES MUY TARDE,YAA AH

NO SE SI FRENAR,
NOSE SI SEFGUIR
NO SE SI FRENAR,
NOSE SI SEFGUIR

YA ES MUY TARDE,YA ES MUY TARDE
YA ES MUY TARDE,YAA AH X4


PUNK ROCK VIEJAA!!!
RESAKA PUNK ROCK (SAN LUIS)
Suggest correction
Give kudos to tab author, rate the tab!
1 2 3 4 5
comments
print report bad tab
guest
You may want to rate the tab now too:
select rating
Wanna post a correction for this tab? Suggest correction