Oops, an error
Loading. Please wait.

No Sueltes Mi Mano Tab

54 views 3 this week
no commentswrite comment
1 2 3 4 5
3 more votes to show rating
add to favorites
launch autoscroll
font size
0
reset
how to read this tab
guitar tuner
×
Best way to learn
"No Sueltes Mi Mano"
Autoscroll
slow
fast
+/-
esc
set tempo
stop
(COLOMBIA)

                 A                 Em                  F#m             D 
E|--*---------7--10--9--7----------12--12--12--14--12--9--9--7---------------|
B|--*-----10--------------10-----------------------------------10--10--10----|
G|--*---9--------------------9--9--------------------------------------------|
D|--*------------------------------------------------------------------------|
A|--*------------------------------------------------------------------------|
E|--*------------------------------------------------------------------------|


                        A                 Em                         F#m
E|--*----7-----------7--12--12--10--9-----12--12--14--12--10--9--10--9--9----|
B|--*-10---10-----10---------------------------------------------------------|
G|--*----------9----------------------9--------------------------------------|
D|--*------------------------------------------------------------------------|
A|--*------------------------------------------------------------------------|
E|--*------------------------------------------------------------------------|


                     D           A
E|--*-7-----------7--10--9--7------------------------------------------------|
B|--*---10----10--------------9--10------------------------------------------|
G|--*------9-----------------------------------------------------------------|
D|--*------------------------------------------------------------------------|
A|--*------------------------------------------------------------------------|
E|--*------------------------------------------------------------------------|

 
PARTE I

A                   Em 
NUNCA IMAGINE QUE LLEGARIA ESTE DIA
F#m                  D 
YO NUNCA PENSE QUE NUESTRO AMOR TERMINARIA
  A      Em
TRA_A_TE POR TODOS LOS MEDIOS
F#m                  D 
MAS DE UNA OCACION HACER ALGO A CUALQUIER PRECIO

F#m                     Em 
AHORA ME DICES QUE LO NUESTRO A TERMINADO 
      F#m                  D 
QUE NUESTRA RELACION A QUEDADO A UN LADO


CORO:
         A                 Em  
Y SIN EMBARGO TE PIDO QUE NO SUELTES MI MANO
    F#m                D
QUE NADA DE LO NUESTRO A SIDO EN VANO
F#m                    Em
ABREME UN LUGAR EN TU CORAZON 
F#m                    D             A
PARA CONTINUAR COMO CUANDO TODO EMPEZO 


PARTE II 
(SE TOCA IGUAL QUE LA PARTE I)

DEBES ENTENDER LO MUCHO QUE SIGNIFICA
QUE ESTES AQUI JUNTO A MI
Y ALREDEDOR DE TI HE CREADO UN MUNDO
LLENO DE ILUSIONES QUE DESEO CUMPLIR

PERO AHORA ME DICES QUE NUESTRA 
NO TIENE SENTIDO
SI, YA NO TIENES UN MOTIVO POR EL CUAL
ESTAR CONMIGO

CORO...


YO SE QUE ALGUNAS VECES ME HE EQUIVOCADO
POR HACER LAS COSAS SIN HABERLAS PENSADO

YO SE QUE ALGUNAS VECES ME HE EQUIVOCADO
POR HACER LAS COSAS SIN HABERLAS PENSADO

A   Em 
NO, NO SUELTES MI MANO NO, NO
F#m D                         A
NO, NO SUELTES MI MANO POR FAVOR
Suggest correction
Give kudos to tab author, rate the tab!
1 2 3 4 5
comments
print report bad tab
guest
You may want to rate the tab now too:
select rating
Wanna post a correction for this tab? Suggest correction