Oops, an error
Loading. Please wait.

Angel Ciego Tab

28 views 1 this week
no commentswrite comment
1 2 3 4 5
3 more votes to show rating
add to favorites
launch autoscroll
font size
0
reset
how to read this tab
guitar tuner
×
Best way to learn
"Angel Ciego"
Autoscroll
slow
fast
+/-
esc
set tempo
stop
Key  : C#m
Transcrita por : Crisis (Edi01@

Fig 1
|------------|------------|------------|------------|
|------------|------------|------------|------------|
|------------|------------|------------|------------|
|------4--6--|------4--6--|------4--6--|----4--6----|
|------------|-----------7|------------|----------7-|
|-0----------|-0----------|-0----------|-0----------|

|------------|------------|------------|------------|
|------------|------------|------------|------------|
|------------|------------|------------|----4-------|
|------6-7-6-|------6-7-6-|------6-7-6-|------6-7-6-|
|-4----------|------------|-4----------|------------|
|------------|------------|------------|------------|
End fig 1

Fig 2				Let ring
|------------|------------|------------|------------|
|------------|------------|------------|------------|
|------------|------------|------------|------------|
|-4-----2----|--6-6---2---|-4-4--------|------------|
|-2-----0----|--4-4---0---|-2-2--------|------------|
|------------|------------|------------|------------|
End Fig 2

Fig 3
|------------|------------|------------|------------|
|------------|------------|------------|------------|
|------------|------------|------------|------------|
|-9-9--------|------4-----|--9-9-------|-------4----|
|-7-7--------|------2-----|--7-7-------|-------2----|
|------------|------------|------------|------------|

|------------|------------|------------|
|------------|------------|------------|
|------------|------------|------------|
|-9-9--------|------4-----|-----2------|
|-7-7--------|------2-----|-----0------|
|------------|------------|------------|

End Fig 3

(Fig 1)
Que me cuentas esta vez
Que seduce ahora tu piel, Tal vez
Seria el viento

Quien te besa al dormir
quien protege ya tus sueños
Hoy un angel ciego

Que prefieres discutir
Quien eliges al reir?, quizas
A un lobo hambriento

Quien desnuda tu ilusion
Quien enjuaga tus deseos, al sol
Un alma en pena es

(Fig 2)
Tal vez, quien sabe quien es
Un cuervo, o un pez, quien lo puede ver


(Fig 3)
Es grande, se pierde, se esconde aqui
Se pierde, se esconde y vuela hacia ti


****Visita  Rock Dominicano
Suggest correction
Give kudos to tab author, rate the tab!
1 2 3 4 5
comments
print report bad tab
guest
You may want to rate the tab now too:
select rating
Wanna post a correction for this tab? Suggest correction