Oops, an error
Loading. Please wait.

Downtown Express Tab

1 view 1 this week
no commentswrite comment
1 2 3 4 5
3 more votes to show rating
add to favorites
launch autoscroll
font size
0
reset
how to read this tab
guitar tuner
Autoscroll
slow
fast
+/-
esc
set tempo
stop
Help us to improve Ultimate-Guitar.com Take our survey!
×
|                                                                   |
| Web:                               |
|                                     |
|                                                                   |
| Fuentes: Muchas horas de escuchar la cansion.                     |
|                                                                   |
| Notas:   La guitarra 2 va en el primer y ultimo versos.           |
|                                                                   |
|          El tiempo del punteo en la guirra 2 es un poco complicado|
|          seria bueno escuchar la cansion.                         |
|                                                                   |
|          El rasgueo de la guitarra 1 en los versos es siempre     |
|          hacia Abajo.                                             |
+-------------------------------------------------------------------+
|                                                                   |
|                    Afinacion Regular: E                           |
|                         E B G D A E                               |
|                                                                   |
+-------------------------------------------------------------------+
|  s = Slide                                                        |
|  p = Pull Back                                                    |
|  h = Hammer on                                                    |
|  ~ = Vibrato                                                      |
|  x = Mute                                                         |
=====================================================================


Guitarra 1

    Bm                 G                  Bm
e|---------------------------------------------|
B|---------------------------------------------|
G|--7-7--7-7--7-7--7-7s4-4--4-4--4-4--4-4s7-7--|
D|--9-9--9-9--9-9--9-9s5-5--5-5--5-5--5-5s9-9--|
A|--9-9--9-9--9-9--9-9s5-5--5-5--5-5--5-5s9-9--|
E|--7-7--7-7--7-7--7-0-3-3--3-3--3-3--3-0-7-7--|


Guitarra 2
       Bm       G           Bm       G
e|------------------------------------------|
B|--------7-8-7---------------7-8-7-9-------|
G|--------------9-----7---------------------|
D|---7h9----------7h9-----7-9---------------|
A|------------------------------------------|
E|------------------------------------------|

       Bm       G           Bm       G
e|------------------------------------------|
B|--------7-8-7---------------7-8-7-9-------|
G|--------------9-----7---------------------|
D|---7h9----------7h9-----7-9---------------|
A|------------------------------------------|
E|------------------------------------------|


       Bm      G         Bm     G         Bm
e|------------------------------------------|
B|--------------------8p7~~------------8p7~~|
G|---------9-7-6~--7~-------9-7-6~--7~------|
D|---7s9------------------------------------|
A|------------------------------------------|
E|------------------------------------------|

        G          Bm    G
e|--------------------------------|
B|-------------8p7~~--------------|
G|--9-7-6~--7~-------9-7-6~--7~~--|
D|--------------------------------|
A|--------------------------------|
E|--------------------------------|


Intro
      (00:04)
        Bm              G (x2)


      (00:12)
        Bm              G
Por las venas de la ciudad

         Bm              G
Sangre acero y electricidad

  Bm             G
Enormes gusanos de metal

     Bm                   G
Atraviesan la manzana con facilidad

Bm         G
  Ataudes colectivos

   Bm        G
Cilencio avismal

Bm            G
  Hologramas con historias

    Bm          G
Crusan la terminal


(00:50)
Coro

  Dm             Am  G
Y yo que hago aqui

         Dm              Am   G
Mientras miran hacia el suelo

Dm         Am   G
No no es a mí
                A|--------2------|
         Dm     E|--0-2-3---3-5--|
A quien buscan sin consuelo


Por debajo de los pies

  (01:15)
    Bm              G
Jugamos a estar muertos

     Bm          G
Esclavos de la prisa

    Bm               G
Hullendo de otro infierno


Bm          G
  Almas apiladas

         Bm      G
Ni se quieren tocar

Bm               G
  Tampoco les importa

           Bm            G
Si no se vuelven a encontrar


(01:47)
Coro

  Dm             Am  G
Y yo que hago aqui

         Dm              Am   G
Mientras miran hacia el suelo

Dm         Am   G
No no es a mí

         Dm            Am   G
A quien buscan sin consuelo

Dm         Am   G
Si comprendi

      Dm            Am   G
Se agoniza en sus miradas

     Dm              Am   G
Acordemos no estar aqui
                A|--------2------|
         Dm     E|--0-2-3---3-5--|
Asta llegar a nuestra parada


(02:24)
Incerto en la arteria como una injeccion itravenosa
Veo incubarce esta enfermedad contajiosa
Me sudan las manos, miro a donde voi,
y una metrocard me pregunta quien soy


   (02:37)
     Bm               G
El bagon se bacia y llena otra ves

    Bm                   G
Talves nunca sepa el porque del estres

  Bm             G
Y nadie me vio, mi cuerpo salio

         Bm                 G
Como emorragia en al parada 42


Bm                   G
Sigue flullendo en chino,

   Bm             G
Aleman, español o en ingles,

    Bm                   G
Italiano, frances, jamaiquino,

        Bm                    G
Todos abordo del Downtown expres


(03:15)
Coro

  Dm             Am  G
Y yo que hago aqui

         Dm              Am   G
Mientras miran hacia el suelo

Dm         Am   G
No no es a mí

         Dm            Am   G
A quien buscan sin consuelo

Dm         Am   G
Si comprendi

      Dm            Am   G
Se agoniza en sus miradas

     Dm              Am   G
Acordemos no estar aqui
                A|--------2------|
         Dm     E|--0-2-3---3-5--|
Asta llegar a nuestra parada.
Suggest correction
Give kudos to tab author, rate the tab!
1 2 3 4 5
comments
print report bad tab
guest
You may want to rate the tab now too:
select rating
Wanna post a correction for this tab? Suggest correction