Oops, an error
Loading. Please wait.

El Experimento Bass Tab

34 views 1 this week
no commentswrite comment
1 2 3 4 5
3 more votes to show rating
add to favorites
launch autoscroll
font size
0
reset
guitar tuner
×
Best way to learn
"El Experimento"
Autoscroll
slow
fast
+/-
esc
set tempo
stop
Intro

G--------4---4--4---6--6--------
D-4--4--------------------------
A-------2-22--2--2-4--4--4-555-4
E2-2--22------------------------

G---------------
D---------------
A4-4-4-4-4-4-4-4
E---------------

Verso

G----------------------------------------------------
D----------------------------------------------------
A------------5--5-5-5-5-5-0--0-0-0-0-0-4--4-4-4-55-44
E2--2-2-2-2-2----------------------------------------

Precoro

G------------------------------------------------------
D------------------------------------------------------
A-------------2--2-2-2-2-2-2--------------7-7-7-7-7-7-7
E5-5-5-5-5-5-5---------------5-5-5-5-5-5-5-------------

G-----------------------------------------77-5-----
D---------------------------------------------7-5-7
A-------------2-2-2-2-2-2-2/5-5-5-5-5-5-5----------
E-5-5-5-5-5-5-5------------------------------------


Coro

G--------------------------------------------------
D--------------------------------------------------
A--------------2--2-2-2-2-2-2-2/4--4-4-4-4-4-5-5-5-4
E2--2-2-2-2-2-2------------------------------------

G-----------------------------------------------
D-----------------------------------------------
A--------------4--4-4-4-4-4-5-5-5-5-5-5-5-------
E2--2-2-2-2-2-2---------------------------0-0--2

Solo

G--------4---4--4---6--6--------
D-4--4--------------------------
A-------2-22--2--2-4--4--4-555-4
E2-2--22------------------------

G--------4---4--4---6--6------------------
D-4--4------------------------------------
A-------2-22--2--2-4--4--4-5-5-5-5-5-5-5-5
E2-2--22----------------------------------

Verso

G----------------------------------------------------
D----------------------------------------------------
A------------5--5-5-5-5-5-0--0-0-0-0-0-4--4-4-4-55-44
E2--2-2-2-2-2----------------------------------------

Precoro

G------------------------------------------------------
D------------------------------------------------------
A-------------2--2-2-2-2-2-2--------------7-7-7-7-7-7-7
E5-5-5-5-5-5-5---------------5-5-5-5-5-5-5-------------

G-----------------------------------------77-5-----
D---------------------------------------------7-5-7
A-------------2-2-2-2-2-2-2/5-5-5-5-5-5-5----------
E-5-5-5-5-5-5-5------------------------------------

Coro

G--------------------------------------------------
D--------------------------------------------------
A--------------2--2-2-2-2-2-2-2/4--4-4-4-4-4-5-5-5-4
E2--2-2-2-2-2-2------------------------------------

G----------------------------------------------------------------
D------------------------------------------12-12-12-12-12-12-10-7
A--------------4--4-4-4-4-4-5-5-5-5-5-5-5-5----------------------
E2--2-2-2-2-2-2--------------------------------------------------

Solo

G--------------------------------------------------
D--------------------------------------------------
A--------------2--2-2-2-2-2-2-2/4--4-4-4-4-4-5-5-5-4
E2--2-2-2-2-2-2------------------------------------

G--------------------------------------------------------------------
D---------------------------------------------12-12-12-12-12-12-12-12
A--------------2--2-2-2-2-2-2-2/4--4-4-4-4-4-5-----------------------
E2--2-2-2-2-2-2------------------------------------------------------

Variante

G----------------------------------------------------
D----------------------------------------------------
A------------5--5-5-5-5-5-0--0-0-0-0-0-4--4-4-4-55-44
E2--2-2-2-2-2----------------------------------------

Precoro

G--------------------------------------------------
D--------------------------------------------------
A--------------2--2-2-2-2-2-2-2/4--4-4-4-4-4-5-5-5-4
E2--2-2-2-2-2-2------------------------------------


Coro/Fin

G--------------------------------------------------
D--------------------------------------------------
A--------------2--2-2-2-2-2-2-2/4--4-4-4-4-4-5-5-5-4
E2--2-2-2-2-2-2------------------------------------

G-----------------------------------------------
D-----------------------------------------------
A--------------4--4-4-4-4-4-5-5-5-5-5-5-5-------
E2--2-2-2-2-2-2---------------------------0-0--2

Uno de sus ultimos singles, demasiado buena!
Suggest correction
Give kudos to tab author, rate the tab!
1 2 3 4 5
comments
print report bad tab
guest
You may want to rate the tab now too:
select rating
Wanna post a correction for this tab? Suggest correction