Oops, an error
Loading. Please wait.

El Gevito Chords

21 views 1 this week
no commentswrite comment
1 2 3 4 5
3 more votes to show rating
add to favorites
launch autoscroll
font size
0
reset
transpose
0
reset
simplify chords
display chords
guitar tuner
Autoscroll
slow
fast
+/-
esc
set tempo
stop
Help us to improve Ultimate-Guitar.com Take our survey!
×
   Riff Principal
e|------5--------5-------5--------5----------5--------5--------5-------5--|
B|--8----8-7------7-6-----6-5-----(5)--2-----2-3------3-4----4-5----------|
G|------------------------------------------------------------------------|
D|------------------------------------------------------------------------|
A|------------------------------------------------------------------------|
E|------------------------------------------------------------------------|

Acordes (verso):
e|--5---3--3---3---1--0--1---3---0--3--0---3--5---ßeste--------------|
B|--5---3--3---3---1--0--1---3---0--3--3---3--5---acorde es el-------|
G|--5---4--4---4---2--2--2---4---4--4--4---4--5---primero de la------|
D|--7---5---5---5---3--3--3---5---5--5--5---5--7--proxima vuelta.----|
A|--7---5---5---5---3-3--3---5---5--5--5---5--7----------------------|
E|--5---3---3---3---1--0--1---3---0--3--3---3--5---------------------|
     Am       G       [riff F-E-F-G][riff E/G-Am]


Cambio : ("el new wave es su adoracion...") :Am G F G   Am (riff E/G-Am)
Coro : Am G F G Am(riff2)       Am F G Am (G Am)

riff2(subiendo en pentatónica)
e|--8--5----------------------------------------------|
B|--------8--5------5---------------------------------|
G|---------------7------7--5--------------------------|
D|------------------------------7--5--7---------------|
A|----------------------------------------------------|
E|----------------------------------------------------|
Suggest correction
Give kudos to tab author, rate the tab!
1 2 3 4 5
comments
print report bad tab
guest
You may want to rate the tab now too:
select rating
Wanna post a correction for this tab? Suggest correction