Oops, an error
Loading. Please wait.

El Gevito Tab

8 views 1 this week
no commentswrite comment
1 2 3 4 5
3 more votes to show rating
add to favorites
launch autoscroll
font size
0
reset
how to read this tab
guitar tuner
×
Best way to learn
"El Gevito"
Autoscroll
slow
fast
+/-
esc
set tempo
stop
Solo de guitarra

e-------------------------------------------------
b---5^full-----------------------5^---------------
g-----------7---5----------------------5----------
d------------------7---5---7~~--------------------
a-------------------------------------------------
E-------------------------------------------------

e-------------------------------------------------
b------------------------/5-----------------------
g---------5---5---5---5---------------------------
d----5h7------------------------------------------
a-------------------------------------------------
E-------------------------------------------------

e--5---8---5---7------5-------5-------------------
b------------------8------8-------8----5----------
g-------------------------------------------------
d-------------------------------------------------
a-------------------------------------------------
E-------------------------------------------------


e--5---7---8---5~~------5---7---8---5-----5------------------------------------------
b-------------------/8-----------------8-----8--5--8--5------------------------------
g--------------------------------------------------------7--5--7--5-------------7^--5
d--------------------------------------------------------------------7--5--7--5------
a------------------------------------------------------------------------------------
E------------------------------------------------------------------------------------

e--------------------------5--5---7--5--7---8--7--8---7~~~
b------5----------------8---------------------------------
g---7-----7^--7~~~----------------------------------------
d---------------------------------------------------------
a---------------------------------------------------------
E---------------------------------------------------------


e-----8--5----5--5--|
b---8------8--------|
g-------------------|
d-------------------|x3
a-------------------|
E-------------------|

e------------------------------------------------
b--8--5-------------------------------5----------
g-------7--5--7--5-----7^--5------7-------7^--7--
d-------------------7----------------------------
a------------------------------------------------
E------------------------------------------------


e--5--7--8--5-|---------------------------------
b-------------|--------5^-----------------------
g-------------|------------7--5-----------------
d-------------|-------------------7-------------
a-------------|---------------------------------
E-------------|---------------------------------

Nota: esta transcripcion es mas bien una idea que les pueda
servir de guia para sacar el solo como lo consideren mas correcto
aunque yo pienso que asi esta bastante bien. Solo no se salgan
de la escala pentatónica en LA.
Suggest correction
Give kudos to tab author, rate the tab!
1 2 3 4 5
comments
print report bad tab
guest
You may want to rate the tab now too:
select rating
Wanna post a correction for this tab? Suggest correction