Oops, an error
Loading. Please wait.

Fantasma Azul Tab

25 views 1 this week
no commentswrite comment
1 2 3 4 5
3 more votes to show rating
add to favorites
launch autoscroll
font size
0
reset
how to read this tab
guitar tuner
Autoscroll
slow
fast
+/-
esc
set tempo
stop
Help us to improve Ultimate-Guitar.com Take our survey!
×
                                                                  Octubre/29/2003
Toque Profundo - Fantasma Azul                                                       

   Introducción

   B5 D5 A5        Ojo aqui
 
e| ---------|-12\14-14~d0----14~-12\14----14----12\14----14~-14-14\17-17~-17d19-19~ 
b| ---------|-------------12-----------12----10-------12---------------------------
g| -4--7----|----------------------------------------------------------------------
d| -4--7--7-|---------------------------------------------------------------------
a| -2--5--7-|---------------------------------------------------------------------
E| -------5-|---------------------------------------------------------------------
Coro
e| -------------------------|---------------------------------------
b| -------------------------|-5\4~-4-4\5~--5\4----7\9~-7~-9\7-------
g| --6-----6-----4--6--4----|-----------------4~---------------9~---
d| --6--7--6--7--4--6--4--7-|---------------------------------------
a| --4--7--4--7--2--4--2--7-|--------------------------------------
E| -----5-----5-----------5-|--------------------------------------


Solo
e| ------------------------------------------------------------------
b| --------5--7--5-----5--7--5-----5--0-------12--10--12-------------
g| ---4--7----------7-----------7-------------------------11--9--11--
d| ------------------------------------------------------------------
a| -----------------------------------------------------------------
E| -----------------------------------------------------------------

e| ------------------------------------------------------------------
b| 10----------------------------------------------------------------
g| ----11--9--11----------11-----11----------9-----9-------7-----7---
d| ---------------9--8d9------9------9--777-----7-----7\9-----9-----9
a| ------------------------------------------------------------------
E| -----------------------------------------------------------------

e| --------------------------12d14--14~--13\14\12~-12-11\12\10--10\9-
b| ---------------10--12d14------------------------------------------
g| -----7--9--11-----------------------------------------------------
d| 7\9--------------------------------------------------------------
a| -----------------------------------------------------------------
E| -----------------------------------------------------------------

            Ojo aqui 
e| -10\9------------------14----14--------------12-----12-------------
b| -------10d12~d0--10d12----12----12--101010------10-----10----------
g| ------------------------------------------------------------8d10--
d| ------------------------------------------------------------------
a| ------------------------------------------------------------------
E| ------------------------------------------------------------------

e| --------12\10----14-12--13-10--7\9~-
b| --12\10-------12--------------------
g| ------------------------------------
d| ------------------------------------
a| ------------------------------------
E| ------------------------------------

Claves
\ Aprovechar la rezondancia de la nota anterior
d Deslice
~ Vibración

Esta es la primera tablatura que hago. Espero que les guste.
Si desean hacer comentarios o pedir una
canción, escribanme a Tedehiervabuena@
Suggest correction
Give kudos to tab author, rate the tab!
1 2 3 4 5
comments
print report bad tab
guest
You may want to rate the tab now too:
select rating
Wanna post a correction for this tab? Suggest correction