Oops, an error
Loading. Please wait.

Mandela Tab

19 views 1 this week
no commentswrite comment
1 2 3 4 5
3 more votes to show rating
add to favorites
launch autoscroll
font size
0
reset
how to read this tab
guitar tuner
×
Best way to learn
"Mandela"
Autoscroll
slow
fast
+/-
esc
set tempo
stop
/ Slide
p Pull


INTRO x4

         B                              A
----|--7-7-7----------------------|---5-5-5---5/7p5p4--4----|-------
----|--7-7-7----4/6p4p3---3-------|---5-5-5----------7---7--|-------
----|--8-8-8------------5---5-----|---6-6-6-----------------|-------
----|--9-9-9----------------------|---7-7-7-----------------|-------
----|--9-9-9----------------------|---7-7-7-----------------|-------
----|--7-7-7----------------------|---5-5-5-----------------|-------


Verso 1
B                     A
Africa preparate a bailar
B                  A
Africa vamos a cantar
        B                A
Porque han liberado a Mandela

Mandela!


REPETIR=Intro=


Verso 2

B                     A
Libertad de toda represion
        B                               A
Que levante la mano quien quiere revolucion
B                         A
Injusticia para la humanidad
   B                             A
Primero la naturaleza por la verdad


REPETIR==Intro==


PUENTE

               Bm
|--------------9-----|-------
|--------7-----9-----|-------
|--------7-----9-----|-------
|----9-9-9-10-11-----|-------
|-------------11-----|-------
|---7-7-7-8--9-9-----|-------


Verso 3

C#m
Ideas que se encuentran 
                              B
Basadas en un racismo sin conciencia
  C#m
Verdad que no detiene
                           B
Y con sangre de hermanos alimentan
   A                          B
En nombre de todo el mundo celebro su libertad
 C#m
Mandela!

=en esta parte es algo asi Cm-B7-Cm, Luego B7-C-C#m-B (2 veces)
luego se tocan los siguientes versos (4 y 5) con los mismos tonos 
que el anterior ( verso 3) 


Verso 4

Sumidos en una historia 
De martires tan latentes 
De sus memorias
Por el odio pisoteados
Por gente color de paz en su piel


Verso 5

Color blanco en la piel 
No significa poder
Aunque negro tengo sangre
Hoy reclamo yo por el
Mandela!


         B                              A
----|--7-7-7------------------|---5-5-5-----------|-------
----|--7-7-7------------------|---5-5-5-----------|-------
----|--8-8-8------------------|---6-6-6-----------|-------
----|--9-9-9------------------|---7-7-7-----------|-------
----|--9-9-9------------------|---7-7-7-----------|-------
----|--7-7-7------------------|---5-5-5-----------|-------

Verso 1 (Repetir)

That was it!  leña! Ah, po' dale patra'....
Suggest correction
Give kudos to tab author, rate the tab!
1 2 3 4 5
comments
print report bad tab
guest
You may want to rate the tab now too:
select rating
Wanna post a correction for this tab? Suggest correction