Oops, an error
Loading. Please wait.

Noche Sin Luna Bass

10 views 1 this week
no commentswrite comment
1 2 3 4 5
3 more votes to show rating
add to favorites
launch autoscroll
font size
0
reset
guitar tuner
×
Best way to learn
"Noche Sin Luna"
Autoscroll
slow
fast
+/-
esc
set tempo
stop
Intro

G-------7------------------------------
D----7h9-9-----------------------------
A-55-------44-4-4-33-----------33------
E--------------------00-11-22-3--333-3-

Verso

G----------------------------------------
D----------------------------------------
A-55-5-5-----44-4-4-33-----------33------
E----------------------00-11-22-3--333-3-

Coro

G----------------------------------------------------------------------
D----------------------------------------------------------------------
A---------------------------3-33-333-----------------------------------
E-4-44-444-1-11-111-4-44-444--------4-44-444-1-11-111-4-44-444-6-66-666

Bridge

G-------------------------------
D-------------------------------
A----------33---33-------------3
E33---33----------33---33--3-6--

Una muy buena cancion, disfrutenla!
Suggest correction
Give kudos to tab author, rate the tab!
1 2 3 4 5
comments
print report bad tab
guest
You may want to rate the tab now too:
select rating
Wanna post a correction for this tab? Suggest correction