Oops, an error
Loading. Please wait.

Ramona Tab

36 views 1 this week
no commentswrite comment
1 2 3 4 5
3 more votes to show rating
add to favorites
launch autoscroll
font size
0
reset
how to read this tab
guitar tuner
×
Best way to learn
"Ramona"
Autoscroll
slow
fast
+/-
esc
set tempo
stop
                                                    
INTRO

    Riff 1      (2 vecees)     
                                 
E  -------------------------------------------------------|
B  -------------------------------------------------------|
G  ----------2---------------------------------------2----|
D  ----------0----0--------3----3-3-----5----0-5-----0----|
A  ---0-3-------------3----1----1-1-----3----0-3----------| 
E  -------------------------------------------------------|

 Estrofa      (Riff 2)

              El LLego a  las ....
E  ----------------4----------------------------4-------------|
B  ------------5------5--------------------4-------4----------|
G  --------------6-------6--------------5-----5------5--------|
D  --------6---------------6---4h6--6-------------------------|
A  ---0-3--4-------------------6----6-------------------------| 
E  -----------------------------------------------------------|

E  ----------------4----------------------0-----0--------|
B  ------------5------5----------------------3-----3-----|
G  --------------6-------6-----------0h1-----------------|
D  --------6---------------6-----2-----------------------|
A  --------4---------------------2-----------------------| 
E  ------------------------------------------------------|


E  -------2---------------------------------------0-----|
B  ----2----2--------4---4------0----------2--------2---|
G  ------------2-----------4--------1------2---2--------|
D  -----------------------------------2-----------------|
A  ----4-------------2---------------------0------------| 
E  -----------------------------0-----------------------|

                                           Y es facil..
E  -------2--------------------------------------------|
B  ----2----2--------4---4------0----------2-----------|
G  ------------2-----------4--------1------2-----------|
D  -----------------------------------2----2-----------|
A  ----4-------------2---------------------0-----------| 
E  -----------------------------0----------------------|

Ahora viene el coro,  todo se toca con el Riff 1, hasta 
que viene la segunda estrofa. que se toca igual que la primera 
con el riff 2.

Y el final.


  DoM Re LaM Rem

Porque nola sue arreglaaar
Suggest correction
Give kudos to tab author, rate the tab!
1 2 3 4 5
comments
print report bad tab
guest
You may want to rate the tab now too:
select rating
Wanna post a correction for this tab? Suggest correction