Oops, an error
Loading. Please wait.

Tabaco Y Ron Tab

157 views 1 this week
no commentswrite comment
1 2 3 4 5
3 more votes to show rating
add to favorites
launch autoscroll
font size
0
reset
how to read this tab
guitar tuner
Autoscroll
slow
fast
+/-
esc
set tempo
stop
OK, esto va por partes pa no complicar el asunto (tito, apunta)

Verso
e-----------------------------------
b-----------------------------------
g-----------------------------------
d------5555-7777-9999---------------
a--7777-----------------------------
e-----------------------------------
 pm..................

e-----------------------------------
b-----------------------------------
g-----------------------------------
d-----------------------------------
a------5555-7777-5555---------------
e--7777-----------------------------
 pm..................

Coro
e-----------------------------------
b--5------5s7-----------------------
g----4--4---------------------------
d-----------------------------------
a-----------------------------------
e-----------------------------------

Bridge
e-----------------------------------
b-----------------------------------
g----55-----55-----44-----55-44-----
d----33-----33-----22-----33-22-----
a-55-----55-----55-----22-----------
e-33-----33-----33-----00-----------
Suggest correction
Give kudos to tab author, rate the tab!
1 2 3 4 5
comments
print report bad tab
guest
You may want to rate the tab now too:
select rating
Wanna post a correction for this tab? Suggest correction