Oops, an error
Loading. Please wait.

Acuarela Tab

version 1
version 1

Whole song

186 views 1 this week
no commentswrite comment
1 2 3 4 5
3 more votes to show rating
add to favorites
launch autoscroll
font size
0
reset
how to read this tab
guitar tuner
Autoscroll
slow
fast
+/-
esc
set tempo
stop
Help us to improve Ultimate-Guitar.com Take our survey!
×
INTRO:
  G                D/F#             C/E          D/F#
E-7-----8---7---10-----7-8---7---7-|-----8-7---10---12---10---8-------
B---8------------------------------|----8-8---------------------7-----
G-----7---7---7------7-----7---7---|---------7---------7----------7---
D-5--------------------------------|--10------------------------------
A------------------9---------------|-7------------9---------9---------
E----------------------------------|----------------------------------

  G                D/F#             C/E          D/F#
E-7-----8---7---10-----7-8---7---7-|-----8-7---10---12---10---8-------
B---8------------------------------|----8-8---------------------7-----
G-----7---7---7------7-----7---7---|---------7---------7----------7---
D-5--------------------------------|--10------------------------------
A------------------9---------------|-7------------9---------9---------
E----------------------------------|----------------------------------

Letra 1:En los mapas del cielo?
Letra 2:Sobre un tramo de vía?
  G               Gadd9/B           C               C6/D
E-3---3-----3-----3----3-----3-----|-3-----3---33------5-5----5-------
B-3---3-----3-----3----3-----3-----|-1-----1---11------5-5----5-------
G-0---0-----0-----2----2-----2-----|-0-----0---00------5-5----5-------
D-0---0-----0-----0----0-----0-----|-2-----2---22----0----------------
A-2---2-----2-----2----2-----2-----|-3-----3---33---------------------
E-3---3-----3----------------------|----------------------------------

    Y la lluvia o las nubes?
    En un tren que me lleva?
  G               Gadd9/B           C               C6/D
E-3---3-----3-----3----3-----3-----|-3-----3---33------5-5----5-------
B-3---3-----3-----3----3-----3-----|-1-----1---11------5-5----5-------
G-0---0-----0-----2----2-----2-----|-0-----0---00------5-5----5-------
D-0---0-----0-----0----0-----0-----|-2-----2---22----0----------------
A-2---2-----2-----2----2-----2-----|-3-----3---33---------------------
E-3---3-----3----------------------|----------------------------------

    Ni los árboles nunca?
    De una América a otra?
  G               Gadd9/B           C               C6/D
E-3---3-----3-----3----3-----3-----|-3-----3---33------5-5----5-------
B-3---3-----3-----3----3-----3-----|-1-----1---11------5-5----5-------
G-0---0-----0-----2----2-----2-----|-0-----0---00------5-5----5-------
D-0---0-----0-----0----0-----0-----|-2-----2---22----0----------------
A-2---2-----2-----2----2-----2-----|-3-----3---33---------------------
E-3---3-----3----------------------|----------------------------------

    De su luz hacia el bosque?
    Basta con desearlo y podrás?
  G               Gadd9/B           C               C6/D
E-3---3-----3-----3----3-----3-----|-3-----3---33------5-5----5-------
B-3---3-----3-----3----3-----3-----|-1-----1---11------5-5----5-------
G-0---0-----0-----2----2-----2-----|-0-----0---00------5-5----5-------
D-0---0-----0-----0----0-----0-----|-2-----2---22----0----------------
A-2---2-----2-----2----2-----2-----|-3-----3---33---------------------
E-3---3-----3----------------------|----------------------------------


     Esa hierba tan verde?
     Un muchacho que trepa?
  Em            Em9/D            Cmaj7           F6-add9
E-------0-----------------------|----------------------0--------------
B---0-------0------------0------|--------0------------3-3-------------
G--0--0----0-0------0-------0---|---0---------0------2---2------------
D-2-------------0-4----4---4-4--|--2--2-----2--2----3-----3-----------
A-------------------------------|-3-----------------------------------
E-------------------------------|-----------------1-------------------

     Que no pude escapar?
     Si se siente seguro?
  G               Gadd9/B           C               C6/D
E-3---3-----3-----3----3-----3-----|-3-----3---33----5-5----555-----
B-3---3-----3-----3----3-----3-----|-1-----1---11----5-5----555-----
G-0---0-----0-----2----2-----2-----|-0-----0---00----5-5----555-----
D-0---0-----0-----0----0-----0-----|-2-----2---22--0----------------
A-2---2-----2-----2----2-----2-----|-3-----3---33-------------------
E-3---3-----3----------------------|--------------------------------

                           Siete mares he surcado
                           Y el futuro es una nave
     C6/D                  G              Bm/F#
E------5-5----5----------|--3----3--3---3--2---2--2--2-----------
B------5-5----5----------|--3----3--3---3--3---3--3--3-----------
G------5-5----5----------|--0----0--0---0--4---4--4--4-----------
D----0-------------------|--0----0--0---0------------------------
A------------------------|--2----2--2---2------------------------
E------------------------|--3----3--3---3--2---2--2--2-----------

  Siete mares       color azul       Yo soy nave voy navegan-
  Que por el tiempo    volará        A Saturno después de Mar-
  C/E             D7sus4   D7        G              Bm/F#
E-0------0--0--0--3------3-2--2----|--3----3--3---3--2---2--2--2-----------
B-1------1--1--1--1------1-1--1----|--3----3--3---3--3---3--3--3-----------
G-0------0--0--0--2------2-2--2----|--0----0--0---0--4---4--4--4-----------
D-----------------0------0-0--0----|--0----0--0---0------------------------
A----------------------------------|--2----2--2---2------------------------
E-0------0--0--0-------------------|--3----3--3---3--2---2--2--2-----------

  DO y MI vela?                     bajo el agua veo peces de colo-
  Te nadie sabe?                    si le ves venir...
  C/E             D7sus4   D7       G                  B7
E-0------0--0--0--3------3-2--2----|---------------------------------------
B-1------1--1--1--1------1-1--1----|-----------0----------------0----------
G-0------0--0--0--2------2-2--2----|-----0----------0-------2-------2------
D-----------------0------0-0--0----|---0-----0---0----0---1---1---1-1------
A----------------------------------|--------------------2------------------
E-0------0--0--0-------------------|-3-------------------------------------

  Res van donde quieren?
  No te los roben?
  Em       Em/D      Aadd9/C#           D7              Am11 Ab7sus4
E------------------------------0-------|---------3---2--------------------
B-----0---------0---------0--------0---|-----1-----1---1-3----3-----------
G---0---0-----0---0-----2---2----2---2-|---2---2---------5----5-----------
D-2--------0---------------------------|-0---------------5----4-----------
A--------------------4-----------------|-----------------0----------------
E--------------------------------------|----------------------4-----------

   Por el cielo va cruzando?
   Aprovecha los mejores?
   G              Bm/F#                  C/E             D7sus4   D7
E--3----3--3---3--2---2--2--2----------|-0------0--0--0--3------3-2--2----
B--3----3--3---3--3---3--3--3----------|-1------1--1--1--1------1-1--1----
G--0----0--0---0--4---4--4--4----------|-0------0--0--0--2------2-2--2----
D--0----0--0---0-----------------------|-----------------0------0-0--0----
A--2----2--2---2-----------------------|----------------------------------
E--3----3--3---3--2---2--2--2----------|-0------0--0--0-------------------

   Una visión que vuela alto?
   LA esperanza jamás?
   G              Bm/F#                  C/E             D7sus4   D7
E--3----3--3---3--2---2--2--2----------|-0------0--0--0--3------3-2--2----
B--3----3--3---3--3---3--3--3----------|-1------1--1--1--1------1-1--1----
G--0----0--0---0--4---4--4--4----------|-0------0--0--0--2------2-2--2----
D--0----0--0---0-----------------------|-----------------0------0-0--0----
A--2----2--2---2-----------------------|----------------------------------
E--3----3--3---3--2---2--2--2----------|-0------0--0--0-------------------

  Desde tierra lo saludan?
  Piensa que el futuro es?
  G                  B7               Em       Em/D      Aadd9/C#
E-----------------------------------|------------------------------0------
B-----------0----------------0------|-----0---------0---------0--------0--
G-----0----------0-------2-------2--|---0---0-----0---0-----2---2----2---2
D---0-----0---0----0---1---1---1-1--|-2--------0--------------------------
A--------------------2--------------|--------------------4----------------
E-3---------------------------------|-------------------------------------
                   No sé dónde va (Intro)
                   Que colorear (Continúa con Final)
  D7               C6/D
E----------3-------5---------------|---------------------------------------
B-----1--------1---5---------------|---------------------------------------
G---2---2----2---2-5---------------|---------------------------------------
D-0----------------5---------------|---------------------------------------
A------------------5---------------|---------------------------------------
E----------------------------------|---------------------------------------

Final:

  En los mapas del cielo el sol siempre es amarillo (Tú lo pintarás)
  G               Gadd9/B           C               C6/D
E-3---3-----3-----3----3-----3-----|-3-----3---33------5-5----5-------
B-3---3-----3-----3----3-----3-----|-1-----1---11------5-5----5-------
G-0---0-----0-----2----2-----2-----|-0-----0---00------5-5----5-------
D-0---0-----0-----0----0-----0-----|-2-----2---22----0----------------
A-2---2-----2-----2----2-----2-----|-3-----3---33---------------------
E-3---3-----3----------------------|----------------------------------

  Y la lluvia o las nubes no pueden ver tanto brillo (Tú lo pintarás)
  G               Gadd9/B           C               C6/D
E-3---3-----3-----3----3-----3-----|-3-----3---33------5-5----5-------
B-3---3-----3-----3----3-----3-----|-1-----1---11------5-5----5-------
G-0---0-----0-----2----2-----2-----|-0-----0---00------5-5----5-------
D-0---0-----0-----0----0-----0-----|-2-----2---22----0----------------
A-2---2-----2-----2----2-----2-----|-3-----3---33---------------------
E-3---3-----3----------------------|----------------------------------

  Basta aún?                                       (Tú lo pintarás)
  G               Gadd9/B           C               C6/D
E-3---3-----3-----3----3-----3-----|-3-----3---33------5-5----5----
B-3---3-----3-----3----3-----3-----|-1-----1---11------5-5----5----
G-0---0-----0-----2----2-----2-----|-0-----0---00------5-5----5----
D-0---0-----0-----0----0-----0-----|-2-----2---22----0-------------
A-2---2-----2-----2----2-----2-----|-3-----3---33------------------
E-3---3-----3----------------------|----------------------------------
Suggest correction
Give kudos to tab author, rate the tab!
1 2 3 4 5
comments
print report bad tab
guest
You may want to rate the tab now too:
select rating
Wanna post a correction for this tab? Suggest correction