Oops, an error
Loading. Please wait.

Poco A Poco Chords

1 view 1 this week
no commentswrite comment
1 2 3 4 5
3 more votes to show rating
add to favorites
launch autoscroll
font size
0
reset
transpose
0
reset
display chords
guitar tuner
×
Best way to learn
"Poco A Poco"
Autoscroll
slow
fast
+/-
esc
set tempo
stop
Para todas las chicas enamoradas...

La canción la pueden tocar con capo o así como está. :S


Intro: ( B - G#m - E - F# ) x2
e|---------------------------------9/11.-12-11---------------------------|
B|----7.-----7/9-7.-----7.-11/12---------------12--11/12-11--------9---7-|
G|------------------------------11--------------------------11-6-8---6---|
D|-8-9----8-9--------8-9-------------------------------------------------|
A|-----------------------------------------------------------------------|
E|-----------------------------------------------------------------------|

        B            G#m      E            F#               B
Te miro, me miras, sé que mis ojos te ponen nervioso
G#m              E            F#
y te ríes y no sabes que te quiero.
        B            G#m      E            F#               B
quisiera decirte tantas cosas sólo en un segundo
G#m              E            F#
y no puedo, y tú no sabes que te quiero
E      F#      G#m        E            F#
tú te acercas más y yo no puedo más...

*Coro
E - F#            B            G#m
Poco a poco, lentamente
E                                                F#
tus ojos se cierran y siento tus labios que se acercan más
  B            G#m
Poco a poco, lentamente
E
quiero continuar huyendo, ahora siento algo muy dentro
      F#
que me calla y nada más.

Intro

        B            G#m            E                  F#                        B
Te abrazo, me abrazas, y me siento dueña de tus sentimientos
     G#m              E                   F#
y te quiero, yo te juro que te quiero.
E      F#      G#m        E            F#
tú te acercas más y yo no puedo más...

*Coro

B      F#                  G#m
Pero aún tú tienes la última palabra
B      F#                  G#m
si seguir conmigo o continuar con nada.

(Aquíla canción cambia de tono)

Coro
F# - G#          C#            A#m
Poco a poco, lentamente
F#                                                G#
tus ojos se cierran y siento tus labios que se acercan más
  C#            A#m
Poco a poco, lentamente
F#
quiero continuar huyendo, ahora siento algo muy dentro
      G#
que me calla y nada más.

(C# - A#m - F# - G) Acompaña A lo de abajo (A.)
e|----------------------------------------11/13.-14-13-----
B|------9.------9/11-9.------9.-13/15------------------14--
G|------------------------------------13-------------------
D|-10-11---10-11--------10-11------------------------------
A|---------------------------------------------------------
E|---------------------------------------------------------

e|----------------------------13..-11----13.-11----13.-11----------------|
B|-13/14-13---------11---9..----------14--------14--------14-14..--8-6..-|
G|----------13-8-10----8-------------------------------------------------|
D|-----------------------------------------------------------------------|
A|-----------------------------------------------------------------------|
E|-----------------------------------------------------------------------|

A. (C# - A#m - F# - G) x4
Nada más... poco a poco... lentamente
tú te acercas más... ya no puedo más...

F#          F#m                   C#
Sólo dime... yo te juro que te quiero.


 ·=========================·
 |   ;)  ¤«L·u·K·?  :)   |
 | luis_reque@  |
 ·=========================·
Suggest correction
Give kudos to tab author, rate the tab!
1 2 3 4 5
comments
print report bad tab
guest
You may want to rate the tab now too:
select rating
Wanna post a correction for this tab? Suggest correction