Oops, an error
Loading. Please wait.

Spark Tab

1,835 views 3 this week
1 commentread comment
1 2 3 4 5
2 more votes to show rating
add to favorites
×
Save as Personal and add changes to this tab that will be seen only by you. Learn more ›
×
You can save this tab as Personal to edit and correct it or add notes. All changes will be seen only by you. Learn more »
save as personal
new!
launch autoscroll
font size
0
reset
how to read this tab
guitar tuner
Autoscroll
slow
fast
+/-
esc
set tempo
stop
Author
-------------------------------------------------------------------------------     SPARK - Tori Amos
-------------------------------------------------------------------------------
Tabbed by: Sophie Benjamin
Email:sophbum@hotmail.com

Tuning:Standard

Intro/Verse Riff:

e|-------------------------------------------------------------------------|
B|-------------------------------------------------------------------------|
G|-----------------------------------10------12-10-------------------------|
D|----6h7p6-------9h10h9-------11-------11---------------------------------|
A|--7------7----0-------10---12---12------12-------------------------------|
E|-------------------------------------------------------------------------|

Chorus:

"You say you don't want it..."
C D G Em x 2
C D

Bridge:
"How many fates..."
Em C



| /  slide up
| \  slide down
| h  hammer-on
| p  pull-off
| ~  vibrato
Suggest correction
Give kudos to tab author, rate the tab!
1 2 3 4 5
comments
print report bad tab
1 comment total.
0 reply
Zoso518 154 May 06, 2011 12:53 PM

This is good, however it is in the wrong key. I don't know if Tori changed the key in the video version or something, but its pretty much a half step up. So add a capo to first fret and play everything 1 fret up and your good.

Capo: 1st

e|--------------------------------------------------|
B|--------------------------------------------------|
G|------------------------------------11------13-11-|
D|----7h8p7------10h11h10-------12-------12---------|
A|--8------8----0--------11---13---13------13-------|
E|--------------------------------------------------|


There is also the version 2, I believe, of chords that is really accurate.

guest
You may want to rate the tab now too:
select rating
Wanna post a correction for this tab? Suggest correction