Oops, an error
Loading. Please wait.

Beautiful Things Acoustic tab

version 2
version 2

Whole song

Interactive

2,677 views 15 this week
no commentswrite comment
1 2 3 4 5
2 more votes to show rating
add to favorites
×
Save as Personal and add changes to this tab that will be seen only by you. Learn more ›
×
You can save this tab as Personal to edit and correct it or add notes. All changes will be seen only by you. Learn more »
launch autoscroll
font size
0
reset
how to read this tab
guitar tuner
edit
Autoscroll
slow
fast
+/-
esc
set tempo
stop
=============================================================================================

Title: Beautiful Things
Artist: Tori Kelly
Album: Unbreakable Smile

This is the part of the second guitar, usually played live by Mateus Asato, Tori's touring 
guitarist. Reference: https://www.youtube.com/watch?v=l1PtwqZTv_E
I left some picking patterns out. At some point, you can make it your own.
Didn't put all his improvisations in this tablature either, since I think when you learn this,
you learn it to support a singer. Besides, it's an improv; create your own!

=============================================================================================

Tuning: Eb Ab Db Gb Bb Eb (Half step down)

[Intro]
e|---------------------------------------------------------------------------|
B|---------0---------------0-------------0---------------0-------------------|
G|------------6-----------------------------6--------------------------------|
D|------7---------------7-------------7---------------4----------------------|
A|---9---------------8-------------7---------------6-------------------------|
E|---------------------------------------------------------------------------|

e|-------------------------------------------------5-------------------------|
B|-------------------10------------------------5---5-------------------------|
G|---------7---------7------7---------------6------6-------------------------|
D|------7-----7------7---7-----7---------7---------7-------------------------|
A|---9-----------9---8------------8---0--------------------------------------|
E|---------------------------------------------------------------------------|

[Verse]
e|---------------------------------------------------------------------------|
B|---------0---------------0--------------0--------------0-------------------|
G|------------6------------------------------6-------------------------------|
D|------7---------------7--------------7--------------4----------------------|
A|---9---------------8--------------7--------------6-------------------------|
E|---------------------------------------------------------------------------|
Verse 1:  I'd been afraid, I'd been away too long
Verse 2:  I only dream beautiful things about you

e|-------------------10----------------------------9-------------------------|
B|-------------------10--10--------------------10--10------------------------|
G|---------7---------10------10-------------9------9-------------------------|
D|------7-----7------0-----------12------11----------------------------------|
A|---9--------------------------------0--------------------------------------|
E|---------------------------------------------------------------------------|
     Every city whispering your name
  So waking up   always seems to hurt

e|---------------------------------------------------------------------------|
B|---------0----------------------0----------------------0---------------0---|
G|------------6---------------------------------------------6----------------|
D|------7----------------------7----------------------7---------------4------|
A|---9----------------------8----------------------7---------------6---------|
E|---------------------------------------------------------------------------|
          Won't ask you to wait, but darling when I      get    home
          And I hate goodbyes,       but I will try to make them work

e|-------------------10h12------------------------------9--------------------|
B|-------------------10-----------------------------10--10-------------------|
G|---------7---------10--------------------------9------9--------------------|
D|------7-----7------0------------------------11-----------------------------|
A|---9-------------------------------------0---------------------------------|
E|---------------------------------------------------------------------------|
 I'm hoping that you might still feel the same
 If you choose to break my heart when I return

[Chorus]
e|---------------------------------------------------------------------------|
B|---10-----10----------------9--------10-----10------10----10---------------|
G|---9---9------9----------9-----9-----9---9------9---9h11------11-----------|
D|---11------------11---9--------------11-------------0-------------0--------|
A|---------------------------------------------------------------------------|
E|---------------------------------------------------------------------------|
     If      you     go              I think I'd understand

e|---------------------------------------------------------------------------|
B|---10-----10----------------9--------10-----10------10----10---------------|
G|---9---9------9----------9-----9-----9---9------9---9h11------11-----------|
D|---11------------11---9--------------11-------------0-------------0--------|
A|---------------------------------------------------------------------------|
E|---------------------------------------------------------------------------|
 It's not that easy  holding   my  hand
    
e|---------------------------------------------------------------------------|
B|---10-----10----------------9--------10-----10---------10----10------------|
G|---9---9------9----------9-----9-----9---9------9------9h11------11--------|
D|---11------------11---9--------------11----------------0-------------0-----|
A|---------------------------------------------------------------------------|
E|---------------------------------------------------------------------------|
 But you     should know        that I miss you all the time

e|-------10------------------------------------------------------------------|
B|-------10------------------------------------------7--------3/5--3--2------|
G|-------10---------------------------------------8-----------4/6--4--2------|
D|-------0-------------------------------------7-----------------------------|
A|---------------------------------------------------------------------------|
E|---------------------------------------------------------------------------|
   And I wish that I could tell you that we'll be alright,            but I

e|-------------------------------|
B|---------3--------------3------|
G|------2-----------------2------|
D|---4--------------------3------|
A|-------------------------------|
E|-------------------------------|
     Can't be where you are tonight

[Last Chorus]
e|---------------------------------------------------------------------------|
B|---10-----10----------------9----------------12-----------------7----------|
G|---9---9------9----------9-----9-----------------12----------------7-------|
D|---11------------11---9------------------12------------------7--------7----|
A|-------------------------------------10--------------12---5----------------|
E|---------------------------------------------------------------------------|
     If      you     go              I think I'd understand

e|-------------------------------------------------------------------|
B|---------0---------------5--------------3------------0-------------|
G|------------6-----------4--------------2------------2--------------|
D|------7----------------2--------------0------------0---------------|
A|---0---------------------------------------------------------------|
E|----------------------4--------------3------------2----------------|
 It's not that easy  holding   my    hand

e|---------------------------------------------------------------------------|
B|---------0---------------5--------------3--------------------0-------------|
G|------------6-----------4--------------2--------------------2--------------|
D|------7----------------2--------------0--------------------0---------------|
A|---0-----------------------------------------------------------------------|
E|----------------------4--------------3--------------------2----------------|
 But you should know            that I miss you all the time

e|----------------------7---------------------------5-----10h12-----------|
B|----------------------7--------10-------------7---------10--------------|
G|------8---------------8--------9-----------7------------10--------------|
D|-----7----7-----------7--------7-----0------------------0---------------|
A|----9-----------------9-------------------------------------------------|
E|---7------------------7--------9----------------------------------------|
And I wish that I could tell you but I can't be where you are

            
            
Suggest correction
Creating personal tab
Creating personal tab
You can edit any tab online and save it as your Personal.

You can edit, replace or remove any tab part or add personal notes – all changes will be seen only by you.

Personal tabs can be accessed anytime from any device, even offline.
Learn more »
Give kudos to tab author, rate the tab!
1 2 3 4 5
comments
print report bad tab
guest
You may want to rate the tab now too:
select rating
Wanna post a correction for this tab? Suggest correction