Oops, an error
Loading. Please wait.

Blink Of An Eye tab

version 1
version 1

Whole song

400 views 1 this week
no commentswrite comment
1 2 3 4 5
x 3
add to favorites
×
Save as Personal and add changes to this tab that will be seen only by you. Learn more ›
×
You can save this tab as Personal to edit and correct it or add notes. All changes will be seen only by you. Learn more »
launch autoscroll
font size
0
reset
how to read this tab
guitar tuner
edit
Autoscroll
slow
fast
+/-
esc
set tempo
stop
[Intro]

e|---------------------------------------------------------------|
B|---1---1---1---1---0---0---0---0---1---1---1---1---1---1---0---|
G|---0---0---0---0---0---0---0---0---0---0---0---0---2---2---2---|
D|---------------------------------------------------------------|
A|---3---3---3---3---3---3---3---3---0---0---0---0---3---3---3---|
E|---------------------------------------------------------------|


[Verse 1]

e|-------------------------------------------------------------------|
B|---1---1---1---1---0---0---0---0---1---1---1---1---1---1---1---1---|
G|---0---0---0---0---0---0---0---0---0---0---0---0---2---2---2---2---|
D|-------------------------------------------------------------------|
A|---3---3---3---3---3---3---3---3---0---0---0---0---3---3---3---3---|
E|-------------------------------------------------------------------|

It's 2am, I can't believe you're gone.
Isn't it strange how,
One life ends, but the clocks up on the wall,
They keep ticking on, and on, and on.
What were your last words? Happened so fast Lord.
Can't help but think who you would be
If you just had the chance to turn 23, oh.
It's 2am, still don't believe you're gone.
And the world keeps spinning on.


[Chorus]

e|-------------------------------------------------------------------|
B|---1---1---1---1-------------------1---1---0---0---1---1---1---1---|
G|---0---0---0---0---0---0---0---0---2---2---0---0---2---2---2---2---|
D|-------------------2---2---2---2---2---2---------------------------|
A|---3---3---3---3---2---2---2---2-------------------3---3---3---3---|
E|-------------------------------------------3---3-------------------|

You had so, many songs, left to sing. 
So many stories that I'll never get to read. 

e|---------------------------------------------------------------------------------------|
B|---1---1---1---1-------------------1---1---0---0---3---1---1---1---1---0---0---0---0---|
G|---0---0---0---0---0---0---0---0---2---2---0---0---2---0---0---0---0---0---0---0---0---|
D|-------------------2---2---2---2---2---2-----------------------------------------------|
A|---3---3---3---3---2---2---2---2-----------------------3---3---3---3---3---3---3---3---|
E|-------------------------------------------3---3---2-----------------------------------|

Heaven holds you in it's arms.
And now, I'm down here learning how to say goodbye,
In the blink of an eye.


[Verse 2]

e|-------------------------------------------------------------------|
B|---1---1---1---1---0---0---0---0---1---1---1---1---1---1---1---1---|
G|---0---0---0---0---0---0---0---0---0---0---0---0---2---2---2---2---|
D|-------------------------------------------------------------------|
A|---3---3---3---3---3---3---3---3---0---0---0---0---3---3---3---3---|
E|-------------------------------------------------------------------|

It's hard to think with all this extra noise.
They're talking so loud.
But you're quiet now, while your melody plays on.
And I'll just sing along, along, along.
When you took your last breath, 
You had so much life left.
Can't help but think it could've been me out there,
Chasing a dream when suddenly it all stops. 
In a heartbeat.


[Chorus]

e|-------------------------------------------------------------------|
B|---1---1---1---1-------------------1---1---0---0---1---1---1---1---|
G|---0---0---0---0---0---0---0---0---2---2---0---0---2---2---2---2---|
D|-------------------2---2---2---2---2---2---------------------------|
A|---3---3---3---3---2---2---2---2-------------------3---3---3---3---|
E|-------------------------------------------3---3-------------------|

There's so, many songs, left to sing. 
So many stories that I'll never get to read. 

e|-------------------------------------------------------|
B|---1---1---1---1-------------------1---1---0---0---3---|
G|---0---0---0---0---0---0---0---0---2---2---0---0---2---|
D|-------------------2---2---2---2---2---2---------------|
A|---3---3---3---3---2---2---2---2-----------------------|
E|-------------------------------------------3---3---2---|

And heaven holds you in it's arms.
And now, I'm down here learning how to say goodbye,


[Outro]

e|-------------------------------------------------------------------|
B|---1---1---1---1---0---0---0---0---1---1---1---1---1---1---1---1---|
G|---0---0---0---0---0---0---0---0---0---0---0---0---2---2---2---2---|
D|-------------------------------------------------------------------|
A|---3---3---3---3---3---3---3---3---0---0---0---0---3---3---3---3---|
E|-------------------------------------------------------------------|

In a blink of an eye.
Woah, no...

e|-------------------------------------------------------|
B|---1---1---1---1---0---0---0---0---1---1---0---0---3---|
G|---0---0---0---0---0---0---0---0---0---0---0---0---2---|
D|-------------------------------------------------------|
A|---3---3---3---3---3---3---3---3---0---0---------------|
E|-------------------------------------------3---3---2---|

In a blink of an eye.
Oooh, mmmm.


 

            
            
Suggest correction
Creating personal tab
Creating personal tab
You can edit any tab online and save it as your Personal.

You can edit, replace or remove any tab part or add personal notes – all changes will be seen only by you.

Personal tabs can be accessed anytime from any device, even offline.
Learn more »
Give kudos to tab author, rate the tab!
1 2 3 4 5
comments
print report bad tab
guest
You may want to rate the tab now too:
select rating
Wanna post a correction for this tab? Suggest correction