Oops, an error
Loading. Please wait.

Blink Of An Eye tab

version 2
version 2

Whole song

145 views 1 this week
no commentswrite comment
1 2 3 4 5
3 more votes to show rating
add to favorites
×
Save as Personal and add changes to this tab that will be seen only by you. Learn more ›
×
You can save this tab as Personal to edit and correct it or add notes. All changes will be seen only by you. Learn more »
launch autoscroll
font size
0
reset
how to read this tab
guitar tuner
edit
Autoscroll
slow
fast
+/-
esc
set tempo
stop
I can't stop listening to this song. It's so beautiful and it means so much. #TeamGrimmie


[Intro]

  C                        Cmaj7                    Am7                      Fmaj7
e|------------------------|------------------------|------------------------|-----------------------|
B|--1-----1-----1-----1---|--0-----0-----0-----0---|--1-----1-----1-----1---|--1-----1-----1--------|
G|--0-----0-----0-----0---|--0-----0-----0-----0---|--0-----0-----0-----0---|--2-----2-----2--------|
D|------------------------|------------------------|------------------------|--------------2--------|
A|--3--3-----3-----3-----3|--3--3-----3-----3-----3|--0--0-----0-----0-----0|-----------------------|
E|------------------------|------------------------|------------------------|--1--1-----1-----------|


[Verse 1]

  C                        Cmaj7                    Am7                      Fmaj7 (or F)
e|------------------------|------------------------|------------------------|------------------------|
B|--1-----1-----1-----1---|--0-----0-----0-----0---|--1-----1-----1-----1---|--1-----1-----1-----1---|
G|--0-----0-----0-----0---|--0-----0-----0-----0---|--0-----0-----0-----0---|--2-----2-----2-----2---|
D|------------------------|------------------------|------------------------|------------------------|
A|--3--3-----3-----3-----3|--3--3-----3-----3-----3|--0--0-----0-----0-----0|------------------------|
E|------------------------|------------------------|------------------------|--1--1-----1-----1-----1|
                It’s 2am        I can’t believe you’re gone,                     Isn’t it strange how

 C                         Cmaj7                    Am7                      Fmaj7
e|------------------------|------------------------|------------------------|------------------------|
B|--1-----1-----1-----1---|--0-----0-----0-----0---|--1-----1-----1-----1---|--1-----1-----1-----1---|
G|--0-----0-----0-----0---|--0-----0-----0-----0---|--0-----0-----0-----0---|--2-----2-----2-----2---|
D|------------------------|------------------------|------------------------|------------------------|
A|--3--3-----3-----3-----3|--3--3-----3-----3-----3|--0--0-----0-----0-----0|------------------------|
E|------------------------|------------------------|------------------------|--1--1-----1-----1-----1|
             One life ends, but the clocks upon the wall       They keep ticking on and on and on

  C                        Cmaj7                    
e|------------------------|------------------------|
B|--1-----1-----1-----1---|--0-----0-----0-----0---|
G|--0-----0-----0-----0---|--0-----0-----0-----0---|
D|------------------------|------------------------|
A|--3--3-----3-----3-----3|--3--3-----3-----3-----3|
E|------------------------|------------------------|
 What were your last words? Happened so fast, Lord

  Am7                                           Fmaj7
e|------------------------|                    |------------------------|
B|--1-----1-----1-----1---|                    |--1-----1-----1-----1---|
G|--0-----0-----0-----0---|                    |--2-----2-----2-----2---|
D|------------------------|                    |------------------------|
A|--0--0-----0-----0-----0|                    |------------------------|
E|------------------------|                    |--1--1-----1-----1-----1|
 Can’t help but think what you would be if you  just had the chance to turn 23

 C                        Cmaj7                    Am7                      Fmaj7
e|------------------------|------------------------|------------------------|----------------|
B|--1-----1-----1-----1---|--0-----0-----0-----0---|--1-----1-----1-----1---|--1-------------|
G|--0-----0-----0-----0---|--0-----0-----0-----0---|--0-----0-----0-----0---|--2-------------|
D|------------------------|------------------------|------------------------|----------------|
A|--3--3-----3-----3-----3|--3--3-----3-----3-----3|--0--0-----0-----0-----0|----------------|
E|------------------------|------------------------|------------------------|--1-------------|
                It’s 2am,   still don’t believe you’re gone                   And the world keeps spinning on


[Chorus]

      C                        Em                       Am            G         F
    e|------------------------|------------------------|-----------------------|------------------------|
    B|--1-----1-----1-----1---|------------------------|--1-----1--------------|--1-----1-----1-----1---|
    G|--0-----0-----0-----0---|--0-----0-----0-----0---|--2-----2-----0----0---|--2-----2-----2-----2---|
    D|------------------------|--2-----2-----2-----2---|--------------0----0---|------------------------|
    A|--3--3-----3-----3-----3|--2--2-----2-----2-----2|--0--0-----0-----------|------------------------|
    E|------------------------|------------------------|--------------3--3----3|--1--1-----1-----1-----1|
You had soooo            many songs        left to    sing,so many stories that I’ll never get to read

      C                        Em                       Am            G         D/F#
    e|------------------------|------------------------|-----------------------|----------------|        
    B|--1-----1-----1-----1---|------------------------|--1-----1--------------|--3-------------|
    G|--0-----0-----0-----0---|--0-----0-----0-----0---|--2-----2-----0----0---|--2-------------|
    D|------------------------|--2-----2-----2-----2---|--------------0----0---|----------------|
    A|--3--3-----3-----3-----3|--2--2-----2-----2-----2|--0--0-----0-----------|----------------|
    E|------------------------|------------------------|--------------3--3----3|--2-------------|
Heaven hooooolds you in its   aaaarms and now I’m down here learning how to say goodbye in the blink of an eye

 C                        Cmaj7                    
e|------------------------|------------------------|
B|--1-----1-----1-----1---|--0-----0-----0-----0---|
G|--0-----0-----0-----0---|--0-----0-----0-----0---|
D|------------------------|------------------------|
A|--3--3-----3-----3-----3|--3--3-----3-----3-----3|
E|------------------------|------------------------|


[Verse 2]

 C                        Cmaj7                    Am7                      Fmaj7
e|------------------------|------------------------|------------------------|------------------------|
B|--1-----1-----1-----1---|--0-----0-----0-----0---|--1-----1-----1-----1---|--1-----1-----1-----1---|
G|--0-----0-----0-----0---|--0-----0-----0-----0---|--0-----0-----0-----0---|--2-----2-----2-----2---|
D|------------------------|------------------------|------------------------|------------------------|
A|--3--3-----3-----3-----3|--3--3-----3-----3-----3|--0--0-----0-----0-----0|------------------------|
E|------------------------|------------------------|------------------------|--1--1-----1-----1-----1|
            It’s hard to think with all this extra noise                     They’re talking so loud

 C                        Cmaj7                    Am7                      Fmaj7
e|------------------------|------------------------|------------------------|------------------------|
B|--1-----1-----1-----1---|--0-----0-----0-----0---|--1-----1-----1-----1---|--1-----1-----1-----1---|
G|--0-----0-----0-----0---|--0-----0-----0-----0---|--0-----0-----0-----0---|--2-----2-----2-----2---|
D|------------------------|------------------------|------------------------|------------------------|
A|--3--3-----3-----3-----3|--3--3-----3-----3-----3|--0--0-----0-----0-----0|------------------------|
E|------------------------|------------------------|------------------------|--1--1-----1-----1-----1|
       But you’re quiet now while your melody plays on      And I’ll just sing along, along, along

 C                        Cmaj7                    
e|------------------------|------------------------|
B|--1-----1-----1-----1---|--0-----0-----0-----0---|
G|--0-----0-----0-----0---|--0-----0-----0-----0---|
D|------------------------|------------------------|
A|--3--3-----3-----3-----3|--3--3-----3-----3-----3|
E|------------------------|------------------------|
When you took your last breath You had so much life left

 Am7                                               Fmaj7
e|------------------------|                        |------------------------|
B|--1-----1-----1-----1---|                        |--1-----1-----1-----1---|
G|--0-----0-----0-----0---|                        |--2-----2-----2-----2---|
D|------------------------|                        |------------------------|  mute all strings
A|--0--0-----0-----0-----0|                        |------------------------|
E|------------------------|                        |--1--1-----1-----1-----1|
Can’t help but think it could have been me out there Chasing a dream when suddenly it all stops....

In a heartbeat


[Chorus]

      C                        Em                       Am            G         F
    e|------------------------|------------------------|-----------------------|------------------------|
    B|--1-----1-----1-----1---|------------------------|--1-----1--------------|--1-----1-----1-----1---|
    G|--0-----0-----0-----0---|--0-----0-----0-----0---|--2-----2-----0----0---|--2-----2-----2-----2---|
    D|------------------------|--2-----2-----2-----2---|--------------0----0---|------------------------|
    A|--3--3-----3-----3-----3|--2--2-----2-----2-----2|--0--0-----0-----------|------------------------|
    E|------------------------|------------------------|--------------3--3----3|--1--1-----1-----1-----1|
There’s sooo           many songs            left to sing     so many stories that I’ll never get to read

       C                        Em                       Am            G         D/F#
    e|------------------------|------------------------|-----------------------|----------------|        
    B|--1-----1-----1-----1---|------------------------|--1-----1--------------|--3-------------|
    G|--0-----0-----0-----0---|--0-----0-----0-----0---|--2-----2-----0----0---|--2-------------|
    D|------------------------|--2-----2-----2-----2---|--------------0----0---|----------------|
    A|--3--3-----3-----3-----3|--2--2-----2-----2-----2|--0--0-----0-----------|----------------|
    E|------------------------|------------------------|--------------3--3----3|--2-------------|
Heaven hooooolds you in its   aaaarms and now I’m down here learning how to say goodbye in the blink of an eye


[Outro]

 C                         Cmaj7                    Am7                      Fmaj7
e|------------------------|------------------------|------------------------|------------------------|
B|--1-----1-----1-----1---|--0-----0-----0-----0---|--1-----1-----1-----1---|--1-----1-----1-----1---|
G|--0-----0-----0-----0---|--0-----0-----0-----0---|--0-----0-----0-----0---|--2-----2-----2-----2---|
D|------------------------|------------------------|------------------------|------------------------|
A|--3--3-----3-----3-----3|--3--3-----3-----3-----3|--0--0-----0-----0-----0|------------------------|
E|------------------------|------------------------|------------------------|--1--1-----1-----1-----1|

   C                       Cmaj7                    Am            G         D/F#
e|------------------------|------------------------|-----------------------|----------------|        
B|--1-----1-----1-----1---|--0-----0-----0-----0---|--1-----1--------------|--3-------------|
G|--0-----0-----0-----0---|--0-----0-----0-----0---|--2-----2-----0----0---|--2-------------|
D|------------------------|------------------------|--------------0----0---|----------------|
A|--3--3-----3-----3-----3|--3--3-----3-----3-----3|--0--0-----0-----------|----------------|
E|------------------------|------------------------|--------------3--3----3|--2-------------|

#RIPChristina



 

            
            
Suggest correction
Creating personal tab
Creating personal tab
You can edit any tab online and save it as your Personal.

You can edit, replace or remove any tab part or add personal notes – all changes will be seen only by you.

Personal tabs can be accessed anytime from any device, even offline.
Learn more »
Give kudos to tab author, rate the tab!
1 2 3 4 5
comments
print report bad tab
guest
You may want to rate the tab now too:
select rating
Wanna post a correction for this tab? Suggest correction