Oops, an error
Loading. Please wait.

Bottled Up tab

1,649 views 6 this week
1 commentread comment
1 2 3 4 5
x 7
add to favorites
×
Save as Personal and add changes to this tab that will be seen only by you. Learn more ›
×
You can save this tab as Personal to edit and correct it or add notes. All changes will be seen only by you. Learn more »
launch autoscroll
font size
0
reset
how to read this tab
guitar tuner
edit
Autoscroll
slow
fast
+/-
esc
set tempo
stop
Author
-------------------------------------------------------------------------------
                             Bottled Up  - Tori Kelly
-------------------------------------------------------------------------------
Tabbed by:
E-mail:

Tuning:EADGBe

Intro:
e|---------------------------------------------------------|
B|--11-11-11-11-11-11-11-11--7-7-7-7--6-6-6-6--------------|
G|--11-11-11-11-11-11-11-11--8-8-8-8--6-6-6-6--------------|
D|--11-11-11-11-11-11-11-11--8-8-8-8--6-6-6-6--------------|
A|---------------------------------------------------------|
E|--11-11-11-11-11-11-11-11--7-7-7-7--6-6-6-6--------------|2x


Verse 1:
e|---------------------------------------------------------|
B|--11-11-11-11-11-11-11-11--7-7-7-7--6-6-6-6--------------|
G|--11-11-11-11-11-11-11-11--8-8-8-8--6-6-6-6--------------|
D|--11-11-11-11-11-11-11-11--8-8-8-8--6-6-6-6--------------|
A|---------------------------------------------------------|
E|--11-11-11-11-11-11-11-11--7-7-7-7--6-6-6-6--------------|
This is the story of a girl broken-hearted
Messed up her head she's so guarded
Don't get me started, woah


Verse 2:
e|-----------------------------------------------------------|
B|----11-11-11-11-11-11-11-11--7-7-7-7--6-6-6-6--------------|
G|----11-11-11-11-11-11-11-11--8-8-8-8--6-6-6-6--------------|
D|----11-11-11-11-11-11-11-11--8-8-8-8--6-6-6-6--------------|
A|-----------------------------------------------------------|
E|----11-11-11-11-11-11-11-11--7-7-7-7--6-6-6-6--------------|
It's cause of you that I got this thick skin
I don't wanna let nobody in
All the pain just stayed in place and I kept it all in for so long


e|-----------------------------------------------------------------------------|
B|----8-8-8-8-8-8-8-8--7-7-7-7-7-7-7-7--6-6-6-6-6-6-6-6--4-4-4-4-4-------------|
G|----8-8-8-8-8-8-8-8--8-8-8-8-8-8-8-8--6-6-6-6-6-6-6-6--4-4-4-4-4-------------|
D|----8-8-8-8-8-8-8-8--8-8-8-8-8-8-8-8--6-6-6-6-6-6-6-6--4-4-4-4-4-------------|
A|-----------------------------------------------------------------------------|
E|----8-8-8-8-8-8-8-8--7-7-7-7-7-7-7-7--6-6-6-6-6-6-6-6--4-4-4-4-4-------------|
So long, so long


Chorus:
e|------------------------------------2-2-2-2---------------------------------------|
B|--11-11-11-11-11-11-11-11--9-9-9-9--2-2-2-2--7-7-7-7-7-7-7-7--6-6-6-6-6-6-6-6-----|
G|--11-11-11-11-11-11-11-11--9-9-9-9--3-3-3-3--8-8-8-8-8-8-8-8--6-6-6-6-6-6-6-6-----|
D|--11-11-11-11-11-11-11-11--9-9-9-9--4-4-4-4--8-8-8-8-8-8-8-8--6-6-6-6-6-6-6-6-----|
A|------------------------------------4-4-4-4---------------------------------------|
E|--11-11-11-11-11-11-11-11--9-9-9-9--2-2-2-2--7-7-7-7-7-7-7-7--6-6-6-6-6-6-6-6-----|
Oh, I just wanna yell
I just wanna throw it all at your face
Silly that I've always felt this way
You'd never know


e|------------------------------------2-2-2-2---------------------------------------|
B|--11-11-11-11-11-11-11-11--9-9-9-9--2-2-2-2--7-7-7-7-7-7-7-7--6-6-6-6-6-6-6-6-----|
G|--11-11-11-11-11-11-11-11--9-9-9-9--3-3-3-3--8-8-8-8-8-8-8-8--6-6-6-6-6-6-6-6-----|
D|--11-11-11-11-11-11-11-11--9-9-9-9--4-4-4-4--8-8-8-8-8-8-8-8--6-6-6-6-6-6-6-6-----|
A|------------------------------------4-4-4-4---------------------------------------|
E|--11-11-11-11-11-11-11-11--9-9-9-9--2-2-2-2--7-7-7-7-7-7-7-7--6-6-6-6-6-6-6-6-----|
I just wanna yell
You know that I can only take so much
I don't wanna keep it bottled up anymore

e|------------------------------------2-2-2-2----------------------------------|
B|--11-11-11-11-11-11-11-11--9-9-9-9--2-2-2-2--7-7-7-7-7-7-7-7--6-6-6-6-6------|
G|--11-11-11-11-11-11-11-11--9-9-9-9--3-3-3-3--8-8-8-8-8-8-8-8--6-6-6-6-6------|
D|--11-11-11-11-11-11-11-11--9-9-9-9--4-4-4-4--8-8-8-8-8-8-8-8--6-6-6-6-6------|
A|------------------------------------4-4-4-4----------------------------------|
E|--11-11-11-11-11-11-11-11--9-9-9-9--2-2-2-2--7-7-7-7-7-7-7-7--6-6-6-6-6------|
Anymore


Verse 3:
e|-----------------------------------------------------------|
B|----11-11-11-11-11-11-11-11--7-7-7-7--6-6-6-6--------------|
G|----11-11-11-11-11-11-11-11--8-8-8-8--6-6-6-6--------------|
D|----11-11-11-11-11-11-11-11--8-8-8-8--6-6-6-6--------------|
A|-----------------------------------------------------------|
E|----11-11-11-11-11-11-11-11--7-7-7-7--6-6-6-6--------------|
I was there hanging on by your string
Trying to give you my everything
Yeah, that's what they all say


Verse 4:
e|-----------------------------------------------------------|
B|----11-11-11-11-11-11-11-11--7-7-7-7--6-6-6-6--------------|
G|----11-11-11-11-11-11-11-11--8-8-8-8--6-6-6-6--------------|
D|----11-11-11-11-11-11-11-11--8-8-8-8--6-6-6-6--------------|
A|-----------------------------------------------------------|
E|----11-11-11-11-11-11-11-11--7-7-7-7--6-6-6-6--------------|
Yeah, you don't know what you put me through
Trying so hard just to prove to you
That I got something to say but I kept it all tucked away for so long


e|-----------------------------------------------------------------------------|
B|----8-8-8-8-8-8-8-8--7-7-7-7-7-7-7-7--6-6-6-6-6-6-6-6--4-4-4-4-4-------------|
G|----8-8-8-8-8-8-8-8--8-8-8-8-8-8-8-8--6-6-6-6-6-6-6-6--4-4-4-4-4-------------|
D|----8-8-8-8-8-8-8-8--8-8-8-8-8-8-8-8--6-6-6-6-6-6-6-6--4-4-4-4-4-------------|
A|-----------------------------------------------------------------------------|
E|----8-8-8-8-8-8-8-8--7-7-7-7-7-7-7-7--6-6-6-6-6-6-6-6--4-4-4-4-4-------------|
So long, so long


Chorus:
e|------------------------------------2-2-2-2---------------------------------------|
B|--11-11-11-11-11-11-11-11--9-9-9-9--2-2-2-2--7-7-7-7-7-7-7-7--6-6-6-6-6-6-6-6-----|
G|--11-11-11-11-11-11-11-11--9-9-9-9--3-3-3-3--8-8-8-8-8-8-8-8--6-6-6-6-6-6-6-6-----|
D|--11-11-11-11-11-11-11-11--9-9-9-9--4-4-4-4--8-8-8-8-8-8-8-8--6-6-6-6-6-6-6-6-----|
A|------------------------------------4-4-4-4---------------------------------------|
E|--11-11-11-11-11-11-11-11--9-9-9-9--2-2-2-2--7-7-7-7-7-7-7-7--6-6-6-6-6-6-6-6-----|
Oh, I just wanna yell
I just wanna throw it all at your face
Silly that I've always felt this way
You'd never know


e|------------------------------------2-2-2-2---------------------------------------|
B|--11-11-11-11-11-11-11-11--9-9-9-9--2-2-2-2--7-7-7-7-7-7-7-7--6-6-6-6-6-6-6-6-----|
G|--11-11-11-11-11-11-11-11--9-9-9-9--3-3-3-3--8-8-8-8-8-8-8-8--6-6-6-6-6-6-6-6-----|
D|--11-11-11-11-11-11-11-11--9-9-9-9--4-4-4-4--8-8-8-8-8-8-8-8--6-6-6-6-6-6-6-6-----|
A|------------------------------------4-4-4-4---------------------------------------|
E|--11-11-11-11-11-11-11-11--9-9-9-9--2-2-2-2--7-7-7-7-7-7-7-7--6-6-6-6-6-6-6-6-----|
I just wanna yell
You know that I can only take so much
I don't wanna keep it bottled up anymore

e|------------------------------------2-2-2-2----------------------------------|
B|--11-11-11-11-11-11-11-11--9-9-9-9--2-2-2-2--7-7-7-7-7-7-7-7--6-6-6-6-6------|
G|--11-11-11-11-11-11-11-11--9-9-9-9--3-3-3-3--8-8-8-8-8-8-8-8--6-6-6-6-6------|
D|--11-11-11-11-11-11-11-11--9-9-9-9--4-4-4-4--8-8-8-8-8-8-8-8--6-6-6-6-6------|
A|------------------------------------4-4-4-4----------------------------------|
E|--11-11-11-11-11-11-11-11--9-9-9-9--2-2-2-2--7-7-7-7-7-7-7-7--6-6-6-6-6------|
Anymore



Verse 5:
e|-----------------------------------------------------------|
B|----11-11-11-11-11-11-11-11--7-7-7-7--6-6-6-6--------------|
G|----11-11-11-11-11-11-11-11--8-8-8-8--6-6-6-6--------------|
D|----11-11-11-11-11-11-11-11--8-8-8-8--6-6-6-6--------------|
A|-----------------------------------------------------------|
E|----11-11-11-11-11-11-11-11--7-7-7-7--6-6-6-6--------------|2x 
Yeah I never talked about the way I really feel
You out my heart through hell
Thought you knew me so well
But, uh ah
Just waiting for me to fail
But I'm doing the opposite and I can't wait to tell the whole world


Verse 5:
e|-----------------------------------------------------------|
B|----11-11-11-11-11-11-11-11--7-7-7-7--6-6-6-6--------------|
G|----11-11-11-11-11-11-11-11--8-8-8-8--6-6-6-6--------------|
D|----11-11-11-11-11-11-11-11--8-8-8-8--6-6-6-6--------------|
A|-----------------------------------------------------------|
E|----11-11-11-11-11-11-11-11--7-7-7-7--6-6-6-6--------------|2x
You're the one that said you'd eat me up
Remember when I told you that I wasn't good enough
And I started to believe that you felt like giving up
But you put the dream crush
And your crazy words stuck to me


Verse 6:
e|-----------------------------------------------------------|
B|----11-11-11-11-11-11-11-11--7-7-7-7--6-6-6-6--------------|
G|----11-11-11-11-11-11-11-11--8-8-8-8--6-6-6-6--------------|
D|----11-11-11-11-11-11-11-11--8-8-8-8--6-6-6-6--------------|
A|-----------------------------------------------------------|
E|----11-11-11-11-11-11-11-11--7-7-7-7--6-6-6-6--------------|2x
I didn't ever want to feel like that again
So I locked up any kind of emotion
But I got the keys and I'm ready now
Set the cage bird free
Time to let it out


Chorus:
e|------------------------------------2-2-2-2---------------------------------------|
B|--11-11-11-11-11-11-11-11--9-9-9-9--2-2-2-2--7-7-7-7-7-7-7-7--6-6-6-6-6-6-6-6-----|
G|--11-11-11-11-11-11-11-11--9-9-9-9--3-3-3-3--8-8-8-8-8-8-8-8--6-6-6-6-6-6-6-6-----|
D|--11-11-11-11-11-11-11-11--9-9-9-9--4-4-4-4--8-8-8-8-8-8-8-8--6-6-6-6-6-6-6-6-----|
A|------------------------------------4-4-4-4---------------------------------------|
E|--11-11-11-11-11-11-11-11--9-9-9-9--2-2-2-2--7-7-7-7-7-7-7-7--6-6-6-6-6-6-6-6-----|
Oh, I just wanna yell
I just wanna throw it all at your face
Silly that I've always felt this way
You'd never know


e|------------------------------------2-2-2-2---------------------------------------|
B|--11-11-11-11-11-11-11-11--9-9-9-9--2-2-2-2--7-7-7-7-7-7-7-7--6-6-6-6-6-6-6-6-----|
G|--11-11-11-11-11-11-11-11--9-9-9-9--3-3-3-3--8-8-8-8-8-8-8-8--6-6-6-6-6-6-6-6-----|
D|--11-11-11-11-11-11-11-11--9-9-9-9--4-4-4-4--8-8-8-8-8-8-8-8--6-6-6-6-6-6-6-6-----|
A|------------------------------------4-4-4-4---------------------------------------|
E|--11-11-11-11-11-11-11-11--9-9-9-9--2-2-2-2--7-7-7-7-7-7-7-7--6-6-6-6-6-6-6-6-----|
I just wanna yell
You know that I can only take so much
I don't wanna keep it bottled up anymore

e|------------------------------------2-2-2-2----------------------------------|
B|--11-11-11-11-11-11-11-11--9-9-9-9--2-2-2-2--7-7-7-7-7-7-7-7--6-6-6-6-6------|
G|--11-11-11-11-11-11-11-11--9-9-9-9--3-3-3-3--8-8-8-8-8-8-8-8--6-6-6-6-6------|
D|--11-11-11-11-11-11-11-11--9-9-9-9--4-4-4-4--8-8-8-8-8-8-8-8--6-6-6-6-6------|
A|------------------------------------4-4-4-4----------------------------------|
E|--11-11-11-11-11-11-11-11--9-9-9-9--2-2-2-2--7-7-7-7-7-7-7-7--6-6-6-6-6------|
Anymore


e|-----------------------------------------------------------------------------|
B|----8-8-8-8-8-8-8-8--7-7-7-7-7-7-7-7--6-6-6-6-6-6-6-6--4-4-4-4-4-------------|
G|----8-8-8-8-8-8-8-8--8-8-8-8-8-8-8-8--6-6-6-6-6-6-6-6--4-4-4-4-4-------------|
D|----8-8-8-8-8-8-8-8--8-8-8-8-8-8-8-8--6-6-6-6-6-6-6-6--4-4-4-4-4-------------|
A|-----------------------------------------------------------------------------|
E|----8-8-8-8-8-8-8-8--7-7-7-7-7-7-7-7--6-6-6-6-6-6-6-6--4-4-4-4-4-------------|
No more, no more, no more......

            
            
Suggest correction
Creating personal tab
Creating personal tab
You can edit any tab online and save it as your Personal.

You can edit, replace or remove any tab part or add personal notes – all changes will be seen only by you.

Personal tabs can be accessed anytime from any device, even offline.
Learn more »
comments
print report bad tab
1 comment total.
0 reply
rjspt87 10 Jan 10, 2017 05:31 PM

very good tab,thank you

guest
You may want to rate the tab now too:
select rating
Wanna post a correction for this tab? Suggest correction