Oops, an error
Loading. Please wait.

City Dove Acoustic tab

1,395 views 6 this week
3 commentsread comments
1 2 3 4 5
x 3
add to favorites
×
Save as Personal and add changes to this tab that will be seen only by you. Learn more ›
×
You can save this tab as Personal to edit and correct it or add notes. All changes will be seen only by you. Learn more »
launch autoscroll
font size
0
reset
how to read this tab
guitar tuner
edit
Autoscroll
slow
fast
+/-
esc
set tempo
stop
-------------------------------------------------------------------------------
                             City Dove - Tori Kelly
-------------------------------------------------------------------------------
Tuning:EADGBe

From the video ''City Dove (Acoustic) - Tori Surprises Jamal
https://www.youtube.com/watch?v=1uoWMO1COuU 

Capo on the 5th fret. 

Verse:
e|--0--0--0--0----0--0--0--0----0--0--0--0----0--0--0--0-------------------------------|
B|--0--0--0--0----0--0--0--0----0--0--0--0----0--0--0--0-------------------------------|
G|--9--9--9--9----8--8--8--8----6--6--6--6----2--2--2--2-------------------------------|
D|--9--9--9--9----9--9--9--9----6--6--6--6----2--2--2--2-------------------------------|
A|--7--7--7--7----7--7--7--7----4--4--4--4----0--0--0--0-------------------------------|
E|-------------------------------------------------------------------------------------|


Verse:
e|--0--0--0--0----0--0--0--0----0--0--0--0----0--0--0--0-------------------------------|
B|--0--0--0--0----0--0--0--0----0--0--0--0----0--0--0--0-------------------------------|
G|--9--9--9--9----8--8--8--8----6--6--6--6----2--2--2--2-------------------------------|
D|--9--9--9--9----9--9--9--9----6--6--6--6----2--2--2--2-------------------------------|
A|--7--7--7--7----7--7--7--7----4--4--4--4----0--0--0--0-------------------------------|
E|-------------------------------------------------------------------------------------|2x
Don't know what it's all about
But every time I look around
All I see is how we're holdin' on
Don't ask me what's wrong or right
I don't even know the time
All I know is I'm holdin' on

Pre-chorus
e|----------------2--2--2--2----0--0--4--4----0--0--0--0-------------------------------|
B|--2--2--2--2----4--4--4--4----0--0--4--4----2--2--2--2-------------------------------|
G|--2--2--2--2----4--4--4--4----1--1--5--5----2--2--2--2-------------------------------|
D|--2--2--2--2----4--4--4--4----2--2--6--6----2--2--2--2-------------------------------|
A|----------------2--2--2--2----2--2--6--6----0--0--0--0-------------------------------|
E|--2--2--2--2------------------0--0--4--4---------------------------------------------|
I haven't figured anything out
I haven't figured anything anything anything out

Chorus:
e|--0--0--0--0--0--0--0--0------------------------------0--0--0--0--0--0--0--0----0--0--0--0--0--0--0--0--|
B|--0--0--0--0--0--0--0--0----4--4--4--4--4--4--4--4----2--2--2--2--2--2--2--2----0--0--0--0--2--2--2--2--|
G|--1--1--1--1--1--1--1--1----4--4--4--4--4--4--4--4----2--2--2--2--2--2--2--2----6--6--6--6--2--2--2--2--|
D|--2--2--2--2--2--2--2--2----4--4--4--4--4--4--4--4----2--2--2--2--2--2--2--2----6--6--6--6--2--2--2--2--|
A|--2--2--2--2--2--2--2--2------------------------------0--0--0--0--0--0--0--0----4--4--4--4--0--0--0--0--|
E|--0--0--0--0--0--0--0--0----4--4--4--4--4--4--4--4------------------------------------------------------|2x
City dove, fly between the buildings and fences
Soft inside but rough on the edges
Waiting here for something to come just holdin' on
Oooh,
City dove, fly between the stars and the headlights
Passin' by the clouds and the street signs
Knowing that there's something to come, just holdin' on

Verse:
e|--0--0--0--0----0--0--0--0----0--0--0--0----0--0--0--0-------------------------------|
B|--0--0--0--0----0--0--0--0----0--0--0--0----0--0--0--0-------------------------------|
G|--9--9--9--9----8--8--8--8----6--6--6--6----2--2--2--2-------------------------------|
D|--9--9--9--9----9--9--9--9----6--6--6--6----2--2--2--2-------------------------------|
A|--7--7--7--7----7--7--7--7----4--4--4--4----0--0--0--0-------------------------------|
E|-------------------------------------------------------------------------------------|2x
I don't really know my fate
I just know I'm on my way
There will be mistakes movin' on
Try to get to the heart of it
Fly low but lookin' for Heaven
I know, I know I'm holding on

Pre-chorus
e|----------------2--2--2--2----0--0--4--4----0--0--0--0-------------------------------|
B|--2--2--2--2----4--4--4--4----0--0--4--4----2--2--2--2-------------------------------|
G|--2--2--2--2----4--4--4--4----1--1--5--5----2--2--2--2-------------------------------|
D|--2--2--2--2----4--4--4--4----2--2--6--6----2--2--2--2-------------------------------|
A|----------------2--2--2--2----2--2--6--6----0--0--0--0-------------------------------|
E|--2--2--2--2------------------0--0--4--4---------------------------------------------|
Won't figure everything out
Never figure everything everything everything out

Chorus:
e|--0--0--0--0--0--0--0--0------------------------------0--0--0--0--0--0--0--0----0--0--0--0--0--0--0--0--|
B|--0--0--0--0--0--0--0--0----4--4--4--4--4--4--4--4----2--2--2--2--2--2--2--2----0--0--0--0--2--2--2--2--|
G|--1--1--1--1--1--1--1--1----4--4--4--4--4--4--4--4----2--2--2--2--2--2--2--2----6--6--6--6--2--2--2--2--|
D|--2--2--2--2--2--2--2--2----4--4--4--4--4--4--4--4----2--2--2--2--2--2--2--2----6--6--6--6--2--2--2--2--|
A|--2--2--2--2--2--2--2--2------------------------------0--0--0--0--0--0--0--0----4--4--4--4--0--0--0--0--|
E|--0--0--0--0--0--0--0--0----4--4--4--4--4--4--4--4------------------------------------------------------|4x
City dove, fly between the buildings and fences
Soft inside but rough on the edges
Waiting here for something to come just holdin' on
Oooh,
City dove, fly between the stars and the headlights
Passin' by the clouds and the street signs
Knowing that there's something to come, just holdin' on
Ooohh, ooooh yeah, oooh, knowing that there's something to come, just holdin' on ooon...
Fly between the stars and the headlights
Passin' by the clouds and the street signs
Knowing that there's something to come, just holdin' on, ooonnnn... 

************************************

            
            
Suggest correction
Creating personal tab
Creating personal tab
You can edit any tab online and save it as your Personal.

You can edit, replace or remove any tab part or add personal notes – all changes will be seen only by you.

Personal tabs can be accessed anytime from any device, even offline.
Learn more »
Give kudos to tab author, rate the tab!
1 2 3 4 5
comments
print report bad tab
3 comments total.
0 reply
PeterPusheenPan 10 Sep 23, 2016 06:25 AM

this part
4--4--4--4--4--4--4--4
4--4--4--4--4--4--4--4
4--4--4--4--4--4--4--4
----------------------
4--4--4--4--4--4--4--4

sounds a little wrong

0 reply
rosealonzo 24 Mar 12, 2017 01:40 AM

capo should be on the 3rd fret otherwise great tab

0 reply
Jeetjexx 467 Mar 21, 2017 03:34 AM

I thought so too, but when she plays this song she has her guitar tuned down one step. The tuning is D G C F G# D.
So when you play it with a normal tuning you have to put the capo on the 3th fret. Thanks for the feedback thoo

guest
You may want to rate the tab now too:
select rating
Wanna post a correction for this tab? Suggest correction