Oops, an error
Loading. Please wait.

Dear No One Tab

version 2
version 2

Whole song

17,983 views 57 this week
no commentswrite comment
1 2 3 4 5
excellent!
x 14
add to favorites
launch autoscroll
font size
0
reset
how to read this tab
guitar tuner
Tab Pro tools
  • play this tab
  • loop segment
  • change instrument
  • show fretboard
  • metronome
×
Best way to learn
"Dear No One"
Autoscroll
slow
fast
+/-
esc
set tempo
stop
Difficulty
Capo
novice
6th fret
-------------------------------------------------------------------------------
                             DEAR NO ONE - Tori Kelly
-------------------------------------------------------------------------------
Tabbed by: Craig F.

Twitter: @cffirst
Instagram: @cffirst
Youtube: https://www.youtube.com/user/soulkeepa2

Tuning: Standard; Capo 6


e|--------------------------------------------0---0---3---0----------------------|
B|------1---1---1---1------0---0---0---0------1---1---1---1-------1---1---1---0--|
G|------0---0---0---0------0---0---0---0------2---2---2---2-------0---0---0---0--|
D|-------------------------0---0---0---0------3---3---3---3-------2---2---2---0--|
A|------0---0---0---0---------------------------------------------3---3---3---2--|
E|-------------------------0---0---0---0-----------------------------------------|


I like being independent
Not so much of an investment
No one to tell me what to do
I like being by myself
Don’t gotta entertain anybody else
No one to answer to

But sometimes, I just want somebody to hold
Someone to give me their jacket when its cold
Got that young love even when we’re old
Yeah sometimes, I want someone to grab my hand
Pick me up, pull me close, be my man
I will love you till the end

So if you’re out there I swear to be good to you
But I’m done lookin’, for my future someone
Cause when the time is right
You’ll be here, but for now
Dear no one, this is your love song

I don’t really like big crowds
I tend to shut people out
I like my space, yeah
But I’d love to have a soul mate
God will give him to me someday
& I know it’ll be worth the wait

So if you’re out there I swear to be good to you
But I’m done lookin’, for my future someone
Cause when the time is right
You’ll be here, but for now
Dear no one, this is your love song

But sometimes, I just want somebody to hold
Someone to give me their jacket when its cold
Got that young love even when we’re old
Yeah sometimes, I want someone to grab my hand
Pick me up, pull me close, be my man
I will love you till the end

So if you’re out there I swear to be good to you
But I’m done lookin’, for my future someone
Cause when the time is right
You’ll be here, but for now
Dear no one, this is your love song
comments
print report bad tab
I want to post or [tab]
guest
You may want to rate the tab now too:
select rating
Please do not post tabs as comments. Select "correction" instead!