Oops, an error
Loading. Please wait.

I Was Made For Loving You tab

version 1
version 1

Whole song

14,594 views 138 this week
2 commentsread comments
1 2 3 4 5
x 6
add to favorites
×
Save as Personal and add changes to this tab that will be seen only by you. Learn more ›
×
You can save this tab as Personal to edit and correct it or add notes. All changes will be seen only by you. Learn more »
launch autoscroll
font size
0
reset
how to read this tab
guitar tuner
edit
Autoscroll
slow
fast
+/-
esc
set tempo
stop
-------------------------------------------------------------------------------
                I Was Made For Loving You - Tori Kelly ft. Ed Sheeran
-------------------------------------------------------------------------------
Tabbed by: Cl8ton8er

Tuning: Standard
Capo: 2nd Fret


[Intro]

(I am still working on this part)

    F         C           G        Am
e|---------------------------------------------------------------------------|
B|---------------------1-----------------------------------------------------|
G|--0h2--0---------0----------------------0----------------------------------|
D|--3---------0h2--------^0-----0------0h2----------------2--------------2---|
A|------------3----------|2---2-------0-------0-------0-----0-------0------0-|
E|-------1-----------0---|3-3-------0----------------------------------------|


                       F         C           G       C
e|---------------------------------------------------------------------------|
B|------------------1--------------------------------------------------------|
G|--------------2-2----0h2--0-----------------------------------------0------|
D|------2---2-2--------3---------0h2--0---0-^0-----0-----0h2p0---------------|
A|-0------0----------------------3------3---|2---2-----2-------3-------------|
E|--------------------------1---------------|3-3-----3-----------------------|


  picking rythym here and throughout rest of song is : 1 2e&a 3 4e&a
                                      Starts HERE \/
e|---------------------------------------------------------------------------|
B|-------------------------------------------1---1----------1----------1-----|
G|-------0---0--------0---0-------0---0---------------0---0------0---0-------|
D|------------------------------------------------------2----------2---------|
A|--3------3---3--------3---3-------3---3------3---3-----------3-------------|
E|---------------------------------------------------------------------------|


[Verse]

                               A    dangerous  plan
   C
e|---------------------------------------------------------------------------|
B|---------1----------1----------1----------1----------1----------1----------|
G|---0---0------0---0------0---0------0---0------0---0------0---0------------|
D|-----2----------2----------2----------2----------2----------2--------------|
A|-3----------3----------3----------3----------3----------3------------------|
E|---------------------------------------------------------------------------|

              Just    this    time  
              G           C                              G (sorta)
e|---------------------------------------------------------------------------|
B|---------1----------0-----------1----------1---------1---------0-----------|
G|---0---0------0---0-------0---0------0---0-----0---0-----0---0-------------|
D|-----2----------0-----------2----------2---------2---------0---------------|
A|-3----------2-----------3----------3---------3-----------------------------|
E|-------------------------------------------------------3-------------------|

   Hand                           Clutched  in mine
   Am                             F
e|---------------------------------------------------------------------------|
B|----------1---------1---------1---------1---------1---------1---------1----|
G|----2---2-----2---2-----2---2-----2---2-----0---0-----0---0-----0---0------|
D|------2---------2---------2---------3---------2---------2---------2--------|
A|--0---------0---------0-------------------3---------3---------3------------|
E|--------------------------------1------------------------------------------|

   Take this  Chance                        Call me   Blind
   G          C                             G         C
e|---------------------------------------------------------------------------|
B|---------0----------1---------1---------1---------0---------1---------1----|
G|---0---0------0---0-----0---0-----0---0-----0---0-----0---0-----0---0------|
D|-----0----------2---------2---------2---------0---------2---------2--------|
A|-2----------3---------3---------3---------2---------3---------3------------|
E|---------------------------------------------------------------------------|

             I've been waiting                       All    my
             G(sorta)  Am                            F
e|---------------------------------------------------------------------------|
B|---------1---------0---------1---------1---------1---------1---------------|
G|---0---0-----0---0-----2---2-----2---2-----2---2-----2---2-----------------|
D|-----2---------0---------2---------2---------2---------3-------------------|
A|-3-------------------0---------0---------0---------------------------------|
E|-----------3---------------------------------------1-----------------------|

     life
   C
e|---------------------------------------------------------------------------|
B|---------1---------1---------1---------1-----------------------------------|
G|---0---0-----0---0-----0---0-----0---0-------------------------------------|
D|-----2---------2---------2---------2---------------------------------------|
A|-3---------3---------3---------3-------------------------------------------|
E|---------------------------------------------------------------------------|


[Pre-Chorus]

(This can be picked or you can just strum chords)

            Please dont scar            This young heart
   Dm                                      F
e|---------1---------1---------1---------1-----------------------------------|
B|---3---3-----3---3-----3---3-----3---3-----------1---------1---------------|
G|-----2---------2---------2---------2-------2---2-----2---2-----------------|
D|-1---------1---------1---------1-------------3---------3-------------------|
A|---------------------------------------------------------------------------|
E|-----------------------------------------1---------1-----------------------|

                           Just take my
                       Dm
e|-----------------------------1---------1---------1---------1---------------|
B|---------1---------1---3---3-----3---3-----3---3-----3---3-----------------|
G|---2---2-----2---2-------2---------2---------2---------2-------------------|
D|-----3---------3-----1---------1---------1---------1-----------------------|
A|---------------------------------------------------------------------------|
E|-1---------1---------------------------------------------------------------|

   Hand
   F                   G
e|---------------------------------------------------------------------------|
B|---------1---------1---------0---------0-----------------------------------|
G|---2---2-----2---2-----0---0-----0---0-------------------------------------|
D|-----3---------3---------0---------0---------------------------------------|
A|---------------------2---------2-------------------------------------------|
E|-1---------1---------------------------------------------------------------|


[Chorus]

(I prefer to strum the chorus but it can be picked with same pattern)


F     C        G      C
I was made for loving you
Even though we may be
F        C           G       Am
Hopeless hearts just passing through
Every bone screaming
F       C         G         Am
I don't know what we should do
All I know is darling
F     C        G      C
I was made for loving you


[Bridge]

F      G     Am
Please don't go
          F       G  Am
I've been waiting so long
F             G   Am         Dm
Oh you don't even know me at all
    F     C        G      C
But I was made for loving you


FINAL NOTES: 

For the chorus at the end of the song it is nice to
end with this as a finger picking chorus.

************************************

| /   slide up
| \   slide down
| h   hammer-on
| p   pull-off
| ~   vibrato
| +   harmonic
| x   Mute note
| b   Bend
| pb  Pre-bend
| br  Bend release
| pbr Pre-bend release
| brb Bend release bend

************************************

            
            
Suggest correction
Creating personal tab
Creating personal tab
You can edit any tab online and save it as your Personal.

You can edit, replace or remove any tab part or add personal notes – all changes will be seen only by you.

Personal tabs can be accessed anytime from any device, even offline.
Learn more »
comments
print report bad tab
2 comments total.
+1 reply
cheshiredoge 10 Aug 29, 2016 12:16 AM

good job on the tab! thanks so much :D

0 reply
cheshiredoge 10 Aug 29, 2016 12:16 AM

good job on the tab! thanks so much :D

guest
You may want to rate the tab now too:
select rating
Wanna post a correction for this tab? Suggest correction