Oops, an error
Loading. Please wait.

I Was Made For Loving You tab

version 2
version 2

Whole song

9,242 views 117 this week
no commentswrite comment
1 2 3 4 5
x 9
add to favorites
×
Save as Personal and add changes to this tab that will be seen only by you. Learn more ›
×
You can save this tab as Personal to edit and correct it or add notes. All changes will be seen only by you. Learn more »
launch autoscroll
font size
0
reset
how to read this tab
guitar tuner
edit
Autoscroll
slow
fast
+/-
esc
set tempo
stop
I Was Made for Loving You by Tori Kelly feat. Ed Sheeran

[TUNING] STANDARD [EADGBe]

[CAPO] 2nd fret

[CHORDS]
F   [13321x]
F7  [xx321x]
C   [x32010]
G   [320001]
Am  [x02210]
D   [xx0232]

[STRUMMING]
v v^v^

[Intro]
      F7      C           G        Am
e ||------------------------------------------------------------------------|
B ||-------------------1--------0----------1---------1---------1---------1--|
G ||--0h2--0-------0--------0----------2---------2---------2---------2------|
D ||--3-------0h2----2--------0------2---2-----2---2-----2---2-----2---2----|
A ||----------3--------------------0---------0---------0---------0----------|
E ||----------------------3-------------------------------------------------|

      F7      C           G        C
e ||------------------------------------------------------------------------|
B ||-------------------1--------0----------1---------1---------1---------1--|
G ||--0h2--0-------0--------0----------0---------0---------0---------0------|
D ||--3-------0h2----2--------0------2---2-----2---2-----2---2-----2---2----|
A ||----------3--------------------3---------3---------3---------3----------|
E ||----------------------3-------------------------------------------------|
                                                               A dangerous

[Verse 1] (Tori Kelly)
      C
e ||-----------------------------------------------------------------------------------|
B ||----------1---------1---------1---------1---------1---------1---------1---------1--|
G ||------0---------0---------0---------0---------0---------0---------0---------0------|
D ||----2---2-----2---2-----2---2-----0---0-----2---2-----2---2-----2---2-----0---0----|
A ||--3---------3---------3---------2---------3---------3---------3---------2----------|
E ||-----------------------------------------------------------------------------------|
      plan,                         just this time                        A stranger's

      Am                  F7                C
e ||---------------------------------------------------------------------------------|
B ||----------1---------1---------1-------1---------1---------1---------1---------1--|
G ||------2---------2-----0h2-2-------2---------0---------0---------0---------0------|
D ||----2---2-----2---2---3-----3---3---3-----2---2-----2---2-----2---2-----2---2----|
A ||--0---------0---------------------------3---------3---------3---------3----------|
E ||---------------------------------------------------------------------------------|
     hand                       clutched in mine                     I'll take this

      C
e ||-----------------------------------------------------------------------------------|
B ||----------1---------1---------1---------1---------1---------1---------1---------1--|
G ||------0---------0---------0---------0---------0---------0---------0---------0------|
D ||----2---2-----2---2-----2---2-----0---0-----2---2-----2---2-----2---2-----0---0----|
A ||--3---------3---------3---------2---------3---------3---------3---------2----------|
E ||-----------------------------------------------------------------------------------|
      chance,                    so call  me  blind                    I've been

      Am                  F7                C
e ||---------------------------------------------------------------------------------|
B ||----------1---------1---------1-------1---------1---------1---------1---------1--|
G ||------2---------2-----0h2-2-------2---------0---------0---------0---------0------|
D ||----2---2-----2---2---3-----3---3---3-----2---2-----2---2-----2---2-----2---2----|
A ||--0---------0---------------------------3---------3---------3---------3----------|
E ||---------------------------------------------------------------------------------|
      waiting                       all my  life

[Pre-Chorus] (Tori Kelly)
Dm                F
Please don't scar this young heart
Dm           G
Just take my hand

[Chorus] (Tori Kelly)
F     C        G      C
I was made for loving you
                      F        C           G       Am
Even though we may be hopeless hearts just passing through
                     F       C         G         Am
Every bone screaming I don't know what we should do
                        F     C        G      C
All I know is, darling, I was made for loving you

[Verse 2](Ed Sheeran)
      C
e ||-----------------------------------------------------------------------------------|
B ||----------1---------1---------1---------1---------1---------1---------1---------1--|
G ||------0---------0---------0---------0---------0---------0---------0---------0------|
D ||----2---2-----2---2-----2---2-----0---0-----2---2-----2---2-----2---2-----0---0----|
A ||--3---------3---------3---------2---------3---------3---------3---------2----------|
E ||-----------------------------------------------------------------------------------|
Hold me close                      through the night                  Don't let

      Am                  F7                C
e ||---------------------------------------------------------------------------------|
B ||----------1---------1---------1-------1---------1---------1---------1---------1--|
G ||------2---------2-----0h2-2-------2---------0---------0---------0---------0------|
D ||----2---2-----2---2---3-----3---3---3-----2---2-----2---2-----2---2-----2---2----|
A ||--0---------0---------------------------3---------3---------3---------3----------|
E ||---------------------------------------------------------------------------------|
      me go,                  we'll   be   alright                       Touch my

      C
e ||-----------------------------------------------------------------------------------|
B ||----------1---------1---------1---------1---------1---------1---------1---------1--|
G ||------0---------0---------0---------0---------0---------0---------0---------0------|
D ||----2---2-----2---2-----2---2-----0---0-----2---2-----2---2-----2---2-----0---0----|
A ||--3---------3---------3---------2---------3---------3---------3---------2----------|
E ||-----------------------------------------------------------------------------------|
      soul                      and hold  it  tight                         I've been

      Am                  F7                C
e ||---------------------------------------------------------------------------------|
B ||----------1---------1---------1-------1---------1---------1---------1---------1--|
G ||------2---------2-----0h2-2-------2---------0---------0---------0---------0------|
D ||----2---2-----2---2---3-----3---3---3-----2---2-----2---2-----2---2-----2---2----|
A ||--0---------0---------------------------3---------3---------3---------3----------|
E ||---------------------------------------------------------------------------------|
      waiting                      all  my  life

[Pre-Chorus] (Ed Sheeran)
Dm           F
I won't scar your young heart
Dm           G
Just take my hand

[Chorus] (Tori Kelly & Ed Sheeran)
      F     C        G      C
Cause I was made for loving you
                      F        C           G       Am
Even though we may be hopeless hearts just passing through
                     F       C         G         Am
Every bone screaming I don't know what we should do
                        F     C        G      C
All I know is, darling, I was made for loving you

[Bridge] (Tori Kelly & Ed Sheeran)
F      G     Am            F       G  Am 
Please don't go, I've been waiting so long 
F            G     Am         D
Oh, you don't even know me at all
    F     C        G      C
But I was made for loving you

[Chorus] (Tori Kelly & Ed Sheeran)
F     C        G      C
I was made for loving you
                      F        C           G       Am
Even though we may be hopeless hearts just passing through
                     F       C         G         Am
Every bone screaming I don't know what we should do
                        F     C        G      C
All I know is, darling, I was made for loving you

************************************

| h  Hammer-on

************************************
Suggest correction
Creating personal tab
Creating personal tab
You can edit any tab online and save it as your Personal.

You can edit, replace or remove any tab part or add personal notes – all changes will be seen only by you.

Personal tabs can be accessed anytime from any device, even offline.
Learn more »
comments
print report bad tab
guest
You may want to rate the tab now too:
select rating
Wanna post a correction for this tab? Suggest correction