Oops, an error
Loading. Please wait.

Paper Hearts Tab

version 1
version 1

Whole song

33,797 views 408 this week
3 commentsread comments
1 2 3 4 5
excellent!
x 29
add to favorites
launch autoscroll
font size
0
reset
how to read this tab
guitar tuner
Tab Pro tools
  • play this tab
  • loop segment
  • change instrument
  • show fretboard
  • metronome
×
Best way to learn
"Paper Hearts"
Autoscroll
slow
fast
+/-
esc
set tempo
stop
Contributor
Difficulty
Capo
intermediate
3rd fret
Capo on 3rd fret

Goodbye love, you flew right by love

Intro & 1st verse

e|--------------------------|---------------------------|
B|--------1-----1-----1-----|--------0-----0h1-----1p0--|
G|------2-----2-----2-----2-|------0-----0-------0------|
D|----3-----3-----3-----3---|----2-----2-------2--------|
A|--0-----------------------|--3------------------------|
E|--------------------------|---------------------------| x4

Remember the way you made me feel
Such young love but
Something in me knew that it was real
Frozen in my head

e|-------3--------------|--------0------------0|
B|---------1-------0----|----------1-------3---|
G|-----2---------1---1--|------2---------3---3-|
D|---3---------2--------|----2---------2-------|
A|-0---------2----------|--0---------3---------|
E|----------------------|----------------------| x4

Pictures I’m living through for now
Trying to remember all the good times
Our life was cutting through so loud
Memories are playing in my dull mind
I hate this part paper hearts
And I’ll hold a piece of yours
Don’t think I would just forget about it

e|-------3--------|
B|---------1------|
G|-----2------1---|
D|---3--------2---|
A|-0----------2---|
E|----------------|


Hoping that you won’t forget about it

Interlude & 2nd verse

e|--------------------------|---------------------------|
B|--------1-----1-----1-----|--------0-----0h1-----1p0--|
G|------2-----2-----2-----2-|------0-----0-------0------|
D|----3-----3-----3-----3---|----2-----2-------2--------|
A|--0-----------------------|--3------------------------|
E|--------------------------|---------------------------| x4

Everything is gray under these skies
Wet mascara
Hiding every cloud under a smile
When there’s cameras

e|-------3--------------|--------0------------0|
B|---------1-------0----|----------1-------3---|
G|-----2---------1---1--|------2---------3---3-|
D|---3---------2--------|----2---------2-------|
A|-0---------2----------|--0---------3---------|
E|----------------------|----------------------| x2

And I just can’t reach out to tell you
That I always wonder what you’re up to

Chorus

e|-------3--------------|--------0------------0|
B|---------1-------0----|----------1-------3---|
G|-2---2-----1---1---1--|--2---2-----3---3---3-|
D|-3-3-------2-2--------|--2-2-------2-2-------|
A|-0---------2----------|--0---------3---------|
E|----------------------|----------------------| x4

Pictures I’m living through for now
Trying to remember all the good times
Our life was cutting through so loud
Memories are playing in my dull mind
I hate this part paper hearts
And I’ll hold a piece of yours
Don’t think I would just forget about it

e|-------3--------|
B|---------1------|
G|-2---2------1---|
D|-3-3--------2---|
A|-0----------2---|
E|----------------|

Hoping that you won’t forget

Bridge

e|--1------1-----1-----1-----|--0--0----3----3-|
B|--3----3-----3-----3----3--|--1----1--3------|
G|--2--2-----2-----2----2----|--0-------0--0---|
D|--0------------------------|--2-------0------|
A|---------------------------|--0-------2------|
E|---------------------------|----------3------| x2

I live through pictures as if I was right there by your side
But you’ll be good without me and if I could just give it some time

e|---3----|
B|---3----|
G|---2----|
D|---0----|
A|---0----|
E|---2----|

I’ll be alright

e|--------------------------|---------------------------|
B|--------1-----1-----1-----|--------0-----0h1-----1p0--|
G|------2-----2-----2-----2-|------0-----0-------0------|
D|----3-----3-----3-----3---|----2-----2-------2--------|
A|--0-----------------------|--3------------------------|
E|--------------------------|---------------------------|

e|--------------------------|
B|--------1-----1-----1-----|
G|------2-----2-----2-----2-|
D|----3-----3-----3-----3---|
A|--0-----------------------|
E|--------------------------|

Goodbye love you flew right by love

Chorus

e|-------3--------------|--------0------------0|
B|---------1-------0----|----------1-------3---|
G|-2---2-----1---1---1--|--2---2-----3---3---3-|
D|-3-3-------2-2--------|--2-2-------2-2-------|
A|-0---------2----------|--0---------3---------|
E|----------------------|----------------------| x4

Pictures I’m living through for now
Trying to remember all the good times
Our life was cutting through so loud
Memories are playing in my dull mind
I hate this part paper hearts
And I’ll hold a piece of yours
Don’t think I would just forget about it

e|-------3-------------|
B|---------1-----------|
G|-----2-------1-------|
D|---3---------2-------|
A|-0-----------2-------|
E|---------------------|

Hoping that you won’t forget 
comments
print report bad tab
3 comments total.
0 reply
susannem99 wrote on July 1 2014, 05:53 am

This is great! It fits perfectly !!!

0 reply
websterkm2 wrote on October 9 2014, 08:46 am

e|--------------------------|---------------------------|
B|--------1-----1-----1-----|--------0-----0h1-----1p0--|
G|------2-----2-----2-----2-|------0-----0---------0----|
D|----3-----3-----3-----3---|----2-----2--------2-------|
A|--0-----------------------|--3------------------------|
E|--------------------------|---------------------------| x4

maybe better?

0 reply
stestestellina wrote on November 20 2014, 09:41 am

i'm sorry but where's the difference?

I want to post or [tab]
guest
You may want to rate the tab now too:
select rating
Please do not post tabs as comments. Select "correction" instead!