Oops, an error
Loading. Please wait.

Rocket Tab

version 1
version 1

Whole song

3,879 views 3 this week
no commentswrite comment
1 2 3 4 5
accurate
x 3
add to favorites
launch autoscroll
font size
0
reset
how to read this tab
guitar tuner
Autoscroll
slow
fast
+/-
esc
set tempo
stop
Help us to improve Ultimate-Guitar.com Take our survey!
×
Author
kimhico 55
Title: Rocket
Artist: Tori Kelly
Album: Foreword

Intro:
-----------------------------------------------|
--11-11-11-11-11-11-6-6-4-4-4-4-4-4-4-4--------|
-----------------------------------------------|
----13-13-13-13-13-13-8-8-6-6-6-6-6-6-6-6~-----|
-----------------------------------------------|

Verse 1
---------------------------------------------------|
-11-11-11-11-11-11---------6-6--4-4-4-4-4-4-4-4----|
---------------------------------------------------|
---13-13-13-13-13-13---------8-8--6-6-6-6-6-6-6-6--|
---------------------------------------------------|
 If I could build a rocket I    would

-----------------------------------------------------|
-11-11-11-11-11-11-----------6-6--4-4-4-4-4-4-4-4----|
-----------------------------------------------------|
---13-13-13-13-13-13----------8-8--6-6-6-6-6-6-6-6---|
-----------------------------------------------------|
 Put all my dreams inside it I    would


--------------------------------------------------|
-5-5-----------4-4--------7-7------------8-8------|
--------------------------------------------------|
--6-6-----------6-6--------8-8-------------9-9----|
--------------------------------------------------|(2x)
 Maybe I could travel far into something new
 Hang onto a shooting star bursting into view

---------------------------------------------------------------|
--5-5------------4-4----------7-7----------8----9-----4-4-4-4--|
---------------------------------------------------------------|
---6-6------------6-6----------8-8----------9----11----6-6-6-6-|
---------------------------------------------------------------|
  Just me and my fickle heart lonely never felt so    right

---------------------------------------|
--1-1-------2-2------4-4-4-4-4-4-4-4~--|
---------------------------------------|
---2-2-------2-2------4-4-4---4-4------|
----------------------------3-----4----|
 I would go anywhere tonight

Verse 2:
---------------------------------------------|
-11-11-11-11-11-11-----6-6-4-4-4-4-4-4-4-4---|
---------------------------------------------|
---13-13-13-13-13-13----8-8-6-6-6-6-6-6-6-6--|
---------------------------------------------|
 If I could be a pilot I   would

-----------------------------------------------------------|
-11-11-11-11-11-11-------------------6-6-4-4-4-4-4-4-4-4---|
-----------------------------------------------------------|
---13-13-13-13-13-13------------------8-8-6-6-6-6-6-6-6-6--|
-----------------------------------------------------------|
 Unlock the sky see what's inside it I   would


------------------------------------------------------------|
-5-5------------------4-4------------------7-7---------8-8--|
------------------------------------------------------------|
--6-6------------------6-6------------------8-8---------9-9-|
------------------------------------------------------------|(2x)
'Cause everyone's out doing things and I'm stuck in my room
 But if this bed grew some wings then what could I not do

---------------------------------------------------------------|
--5-5------------4-4----------7-7----------8----9-----4-4-4-4--|
---------------------------------------------------------------|
---6-6------------6-6----------8-8----------9----11----6-6-6-6-|
---------------------------------------------------------------|
  Just me and my fickle heart lonely never felt so    right

---------------------------------------|
--1-1-------2-2------4-4-4-4-4-4-4-4~--|
---------------------------------------|
---2-2-------2-2------4-4-4---4-4------|
----------------------------3-----4----|
 I would go anywhere tonight


Bridge:
----------------------------------------------|
---1~----1-2---0~--2~--4--4--4--4--4--4--4----|
----------------------------------------------|
------4~ -4------2~--2~--1--1--1--1--1--1--1--|
----------------------------------------------|
   Oooooh~
--------------------------------------|
--1-2-------0~--2~--4-4-4-4-4-4-4-4~--|
--------------------------------------|
-----4~-----2~--2~---1-1-1---1---1----|
---------------------------3---4------|
 Oooooh~



---------------------------------------------------|
-11-11-11-11-11-11---------6-6--4-4-4-4-4-4-4-4----|
---------------------------------------------------|
---13-13-13-13-13-13---------8-8--6-6-6-6-6-6-6-6--|
---------------------------------------------------|
 If I could build a rocket I    would

---------------------------------------|
--1-1-------2-2------4-4-4-4-4-4-4-4~--|
---------------------------------------|
---2-2-------2-2------4-4-4-4-4-4-4----|
---------------------------------------|
 I would go anywhere tonight

---------------------------------------|
--1-1-------2-2------8-8-8-8-6-6-6-6---|
---------------------------------------|
---2-2-------2-2------6-6-6-6-4-4-4-4--|
---------------------------------------|
  I would go anywhere tonight           Hmmmm~

------------------|
--1-1-------2-2---|
------------------|
---2-2-------2-2~-|
------------------|
  I would go anywhere
Suggest correction
What's this?
You can suggest a correction to this tab. Community and Mods will review your correction and vote to approve or reject it.
comments
We did not receive enough feedback on this tab! Please rate:
print report bad tab
1 2 3 4 5
guest
You may want to rate the tab now too:
select rating
Please do not post tabs as comments. Select "correction" instead!