Oops, an error
Loading. Please wait.

Silent Live chords

version 5
version 5

Whole song

2,277 views 15 this week
no commentswrite comment
1 2 3 4 5
x 11
add to favorites
×
Save as Personal and add changes to this tab that will be seen only by you. Learn more ›
×
You can save this tab as Personal to edit and correct it or add notes. All changes will be seen only by you. Learn more »
launch autoscroll
font size
0
reset
transpose
0
reset
simplify chords
display chords
guitar tuner
edit
Autoscroll
slow
fast
+/-
esc
set tempo
stop
Strumming
There is no strumming pattern for this song yet. and get +5 IQ
Song: 'Silent' from The Giver movie soundtrack
Artist: Tori Kelly
Source: https://www.youtube.com/watch?v=yCIXnFyb0ks
Tabbed by: StevenTheGreat7



Capo on 8th fret
Tunning as seen below

Intro (Plucking)

e----------------------------------------------------------------
B---------------------------------0h3----------------------------
G---0--2--0--0---0----0--0--0--0---------------------------------
D--2--0--0--0--0-0---2--2--2--2--2-------------------------------
A-------------------3--3--3--3--3--------------------------------
E-0--2--3--3--3--3-----------------------------------------------


e----------------------------0-----------------------------------
B---------------------0---0----0---------------------------------
G---0--2--0--0---0-----------------------------------------------
D--2--0--0--0--0-0---2--2--2-------------------------------------
A-------------------3--3--3--------------------------------------
E-0--2--3--3--3--3-----------------------------------------------



----



e----------------------------------------------------------------
B---------------------------------3----------------------------
G---0--2--0--0---0----0--0--0--0---------------------------------
D--2--0--0--0--0-0---2--2--2--2--2-------------------------------    (4x)
A-------------------3--3--3--3--3--------------------------------  
E-0--2--3--3--3--3-----------------------------------------------

Verse 1: (Plucking)

Wake up in a new day but it don't feel that new
Same faces around me with the same point of view 
Everything is perfect, everything's okay 
Just swallow the lies and let your emotions fade 



Am                C
No more black and white 
                G         D/F#
This life's too colorful, beautiful
Am                    Dsus
Don't know what lies ahead but  (Strum once)

Chorus: 
Em D/F#    G              D         Am
I'm ready now, it's time gotta go, gotta get out 
Em D/F#       G      D                 Am
And leave my fear behind nothing left for me here can't stick around
C             Em          G            D
My dreams are loud and my heart's wide awake 
    Am            C9
And all I know is I'm not meant to be silent   (Strum once)


e----------------------------0-----------------------------------
B---------------------0---0----0---------------------------------
G---0--2--0--0---0-----------------------------------------------
D--2--0--0--0--0-0---2--2--2-------------------------------------
A-------------------3--3--3--------------------------------------
E-0--2--3--3--3--3-----------------------------------------------



Verse 2: 

Em  D/F#      G                    C
Wake up to a new voice telling me where to go
Em        D/F#   G                           C
It sounds like I got no choice but to keep on this road 
Em D/F# G
Got my own opinion, my own words to say 
C
Got my own visions, so I know I can't stay 
        Em   D/F#       G               Am7
There's no looking back now, I feel a change 


Chorus: 
Em D/F#    G              D         Am
I'm ready now, it's time gotta go, gotta get out 
Em D/F#       G      D                 Am
And leave my fear behind nothing left for me here can't stick around
C             Em          G            D
My dreams are loud and my heart's wide awake 
    Am            C9
And all I know is I'm not meant to be silent        (Strum once)


(Plucking)

Am                C
No more black and white 
                G         D/F#
This life's too colorful, beautiful
Am                    Dsus
Don't know what lies ahead but 



e----------------------------------------------------------------
B---------------------------------0h3----------------------------
G---0--2--0--0---0----0--0--0--0---------------------------------   
D--2--0--0--0--0-0---2--2--2--2--2-------------------------------
A-------------------3--3--3--3--3--------------------------------
E-0--2--3--3--3--3-----------------------------------------------


C             Em          G            D
My dreams are loud and my heart's wide awake 
    Am            C9                    Em D/F# G D Am Em D/F# G D Am
And all I know is I'm not meant to be silent 

Am         Em  D/F# G       D  Am
Oooh ready now it's time yeah
             Em D/F# G      D  Am
And leave my fear behind 
C             Em          G            D
My dreams are loud and my heart's wide awake 

    Am            C9   (Strum once)
And all I know is I'm not meant to be silent      

            
            
Suggest correction
Creating personal tab
Creating personal tab
You can edit any tab online and save it as your Personal.

You can edit, replace or remove any tab part or add personal notes – all changes will be seen only by you.

Personal tabs can be accessed anytime from any device, even offline.
Learn more »
comments
print report bad tab
guest
You may want to rate the tab now too:
select rating
Wanna post a correction for this tab? Suggest correction