Oops, an error
Loading. Please wait.

Talk tab

890 views 9 this week
no commentswrite comment
1 2 3 4 5
2 more votes to show rating
add to favorites
×
Save as Personal and add changes to this tab that will be seen only by you. Learn more ›
×
You can save this tab as Personal to edit and correct it or add notes. All changes will be seen only by you. Learn more »
launch autoscroll
font size
0
reset
how to read this tab
guitar tuner
edit
Autoscroll
slow
fast
+/-
esc
set tempo
stop
Author
-------------------------------------------------------------------------------
                             Talk - Tori Kelly
-------------------------------------------------------------------------------

Tuning:EADGBe

Intro:
e|--2--2--0--0--5--5--5--5----0--0--5--5--2--2--2--2------------------------------|
B|--3--3--2--2--5--5--5--5----2--2--5--5--3--3--3--3------------------------------|
G|--2--2--2--2--6--6--6--6----2--2--6--6--2--2--2--2------------------------------|
D|--0--0--2--2--7--7--7--7----2--2--7--7--0--0--0--0------------------------------|
A|--------0--0--7--7--7--7----0--0--7--7------------------------------------------|
E|--------------5--5--5--5----------5--5------------------------------------------|2x

Verse 1:
e|--2--2--0--0--5--5--5--5----0--0--5--5--2--2--2--2------------------------------|
B|--3--3--2--2--5--5--5--5----2--2--5--5--3--3--3--3------------------------------|
G|--2--2--2--2--6--6--6--6----2--2--6--6--2--2--2--2------------------------------|
D|--0--0--2--2--7--7--7--7----2--2--7--7--0--0--0--0------------------------------|
A|--------0--0--7--7--7--7----0--0--7--7------------------------------------------|
E|--------------5--5--5--5----------5--5------------------------------------------|2x
People talk, people talk
But they don't wanna say what they're really trying to say
Hopes and fears, smoke and mirrors
Save all the thinking, words by themselves they just fade

Pauze:
e|--2--2--0--0--5--5--5--5----0--0--5--5--2--2--2--2------------------------------|
B|--3--3--2--2--5--5--5--5----2--2--5--5--3--3--3--3------------------------------|
G|--2--2--2--2--6--6--6--6----2--2--6--6--2--2--2--2------------------------------|
D|--0--0--2--2--7--7--7--7----2--2--7--7--0--0--0--0------------------------------|
A|--------0--0--7--7--7--7----0--0--7--7------------------------------------------|
E|--------------5--5--5--5----------5--5------------------------------------------|2x

Verse 2:
e|--2--2--0--0--5--5--5--5----0--0--5--5--2--2--2--2------------------------------|
B|--3--3--2--2--5--5--5--5----2--2--5--5--3--3--3--3------------------------------|
G|--2--2--2--2--6--6--6--6----2--2--6--6--2--2--2--2------------------------------|
D|--0--0--2--2--7--7--7--7----2--2--7--7--0--0--0--0------------------------------|
A|--------0--0--7--7--7--7----0--0--7--7------------------------------------------|
E|--------------5--5--5--5----------5--5------------------------------------------|2x
People run, people walk
But they don't ever see past the world that they're in
So if it's talk that you want from me then maybe you should let me in

Chorus:
e|--2--2--0--0--5--5--5--5----0--0--5--5--2--2--2--2------------------------------|
B|--3--3--2--2--5--5--5--5----2--2--5--5--3--3--3--3------------------------------|
G|--2--2--2--2--6--6--6--6----2--2--6--6--2--2--2--2------------------------------|
D|--0--0--2--2--7--7--7--7----2--2--7--7--0--0--0--0------------------------------|
A|--------0--0--7--7--7--7----0--0--7--7------------------------------------------|
E|--------------5--5--5--5----------5--5------------------------------------------|2x
Oh, you keep saying you won't let me go
Talk)
Oh, you keep saying you won't let me go
Talk)
Oh, you keep saying you won't let me go, oh, yeah
Talk)
Oh, you keep saying things I've heard before, heard before, babe
Talk)

Verse 3:
e|--2--2--0--0--5--5--5--5----0--0--5--5--2--2--2--2------------------------------|
B|--3--3--2--2--5--5--5--5----2--2--5--5--3--3--3--3------------------------------|
G|--2--2--2--2--6--6--6--6----2--2--6--6--2--2--2--2------------------------------|
D|--0--0--2--2--7--7--7--7----2--2--7--7--0--0--0--0------------------------------|
A|--------0--0--7--7--7--7----0--0--7--7------------------------------------------|
E|--------------5--5--5--5----------5--5------------------------------------------|2x
Playing with empty hearts, leading words felt like they're just going no where now
So if it's talk that you want from me then maybe you should let me in

Chorus:
e|--2--2--0--0--5--5--5--5----0--0--5--5--2--2--2--2------------------------------|
B|--3--3--2--2--5--5--5--5----2--2--5--5--3--3--3--3------------------------------|
G|--2--2--2--2--6--6--6--6----2--2--6--6--2--2--2--2------------------------------|
D|--0--0--2--2--7--7--7--7----2--2--7--7--0--0--0--0------------------------------|
A|--------0--0--7--7--7--7----0--0--7--7------------------------------------------|
E|--------------5--5--5--5----------5--5------------------------------------------|2x
Oh, you keep saying you won't let me go
Talk)
Oh, you keep saying you won't let me go
Talk)
Oh, you keep saying you won't let me go, oh, yeah
Talk)
Oh, you keep saying things I've heard before, heard before, babe
Talk)

Bridge:
e|--6--6--6--6----1--1--1--1----8---8---8---8---8---8---8---8---------------------------------------|
B|--6--6--6--6----1--1--1--1----8---8---8---8---8---8---8---8---------------------------------------|
G|--7--7--7--7----2--2--2--2----9---9---9---9---9---9---9---9---------------------------------------|
D|--8--8--8--8----3--3--3--3----10--10--10--10--10--10--10--10--------------------------------------|
A|--8--8--8--8----3--3--3--3----10--10--10--10--10--10--10--10--------------------------------------|
E|--6--6--6--6----1--1--1--1----8---8---8---8---8---8---8---8---------------------------------------|2x
Keep talkin' to me like)
Keep talkin' to me like)
Know all about you) Yeah
Know all about you)
Keep talkin' to me like)
Keep talkin' to me like
Know all about you, yeah
Know all about you


Chorus:
e|--2--2--0--0--5--5--5--5----0--0--5--5--2--2--2--2------------------------------|
B|--3--3--2--2--5--5--5--5----2--2--5--5--3--3--3--3------------------------------|
G|--2--2--2--2--6--6--6--6----2--2--6--6--2--2--2--2------------------------------|
D|--0--0--2--2--7--7--7--7----2--2--7--7--0--0--0--0------------------------------|
A|--------0--0--7--7--7--7----0--0--7--7------------------------------------------|
E|--------------5--5--5--5----------5--5------------------------------------------|2x
Oh, you keep saying you won't let me go
Talk)
Oh, you keep saying you won't let me go
Talk)
Oh, you keep saying you won't let me go, oh, yeah
Talk)
Oh, you keep saying things I've heard before, heard before, babe
Talk)

Outro:
e|--6--6--6--6----1--1--1--1----8---8---8---8---8---8---8---8---------------------------------------|
B|--6--6--6--6----1--1--1--1----8---8---8---8---8---8---8---8---------------------------------------|
G|--7--7--7--7----2--2--2--2----9---9---9---9---9---9---9---9---------------------------------------|
D|--8--8--8--8----3--3--3--3----10--10--10--10--10--10--10--10--------------------------------------|
A|--8--8--8--8----3--3--3--3----10--10--10--10--10--10--10--10--------------------------------------|
E|--6--6--6--6----1--1--1--1----8---8---8---8---8---8---8---8---------------------------------------|4x


************************************


            
            
Suggest correction
Creating personal tab
Creating personal tab
You can edit any tab online and save it as your Personal.

You can edit, replace or remove any tab part or add personal notes – all changes will be seen only by you.

Personal tabs can be accessed anytime from any device, even offline.
Learn more »
Give kudos to tab author, rate the tab!
1 2 3 4 5
comments
print report bad tab
guest
You may want to rate the tab now too:
select rating
Wanna post a correction for this tab? Suggest correction