Oops, an error
Loading. Please wait.

Treasure Tab

version 1
version 1

Whole song

9,967 views 6 this week
2 commentsread comments
1 2 3 4 5
x 10
add to favorites
launch autoscroll
font size
0
reset
how to read this tab
guitar tuner
Autoscroll
slow
fast
+/-
esc
set tempo
stop
Help us to improve Ultimate-Guitar.com Take our survey!
×
Author
Capo
1st fret
Song: Treasure
Artist: Tori Kelly
Album: Foreword EP (2013)

CAPO 1
------------------------------------------------------------------------------------------------

[INTRO, VERSE I, CHORUS, VERSE II, CHORUS]

e|----------Amaj7--------------|-----------------------------|---------Gmaj7----------------|
B|-----------------------------|-----------------------------|------------------------------|
G|-----------------------------|-----------------------------|------------------------------|
D|---------6----------6--------|---------6----------6--------|--------4----------4----------|
A|-----4--------4-----------4--|-----4--------4-----------4--|----2---------2----------2----|
E|---5---5----5----5-----5-----|---5---5----5----5-----5-----|--3---3-----3----3------3-----|

e|------------------------------|--------------Dmaj7---------------2x|------------Bmaj7----------2x|
B|------------------------------|----------------------------------2x|---------------------------2x|
G|------------------------------|----------------------------------2x|---------------------------2x|
D|--------4----------4----------|----------11-----------11---------2x|-------7---------7---------2x|
A|----2---------2----------2----|-----9-----------9-------------9--2x|---5---------5---------5---2x|
E|--3---3-----3----3------3-----|--10---10-----10---10------10-----2x|-6---6---6----6----6-------2x|

[BRIDGE (I wasn't even looking for you...), CHORUS (strumming)]
          Amaj7                  Gmaj7                 Dmaj7               Bmaj7
e|--x------------------|--x------------------|--x------------------|--x-----------|
B|--5------------------|--3------------------|--10-----------------|--6-----------|
G|--6------------------|--4------------------|--11-----------------|--7-----------|
D|--6------------------|--4------------------|--11-----------------|--7-----------|
A|--x------------------|--x------------------|--x------------------|--x-----------|
E|--5------------------|--3------------------|--10-----------------|--6-----------|

[ENDING]
     Dmaj7       Amaj7        Cmaj7       Gmaj7
e|--x--------|--x--------|--x--------|--x--------|
B|--10-------|--5--------|--8--------|--3--------|
G|--11-------|--6--------|--9--------|--4--------|
D|--11-------|--6--------|--9--------|--4--------|
A|--x--------|--x--------|--x--------|--x--------|
E|--10-------|--5--------|--8--------|--3--------|

VERSE I
I was not waiting for your love
Before it was all on this shore
Darling, I never really get
This feeling in my chest

CHORUS
It's a new day to discover
So many things to uncover
Even when the tide is high
Out here it's just you and I
Perfect how we fit together
Being around you is a pleasure
Like the way gold lasts forever
I feel like I found my treasure

VERSE II
When I first fell into those
Deep pools in your eyes
I thought I would be fine
'Cause I never really get
This feeling in my chest

BRIDGE
I wasn't even looking for you
My skies were already blue
Now you're what I hold on to
These eyes are fixed on you
And in love we're meant to play
I could never turn away now
Suggest correction
comments
print report bad tab
2 comments total.
+1 reply
RadioGA-GA 164 Apr 01, 2014 08:37 PM

chords would be helpful thanks!

+1 reply
AbiMaster 2,168 Apr 02, 2014 06:39 AM

Thanks for the feedback, put the chords above the tabs now :)

guest
You may want to rate the tab now too:
select rating
Wanna post a correction for this tab? Suggest correction