Oops, an error
Loading. Please wait.

Christmas Song Chestnuts Roasting On An Open Fire tab

3,194 views 3 this week
1 commentread comment
1 2 3 4 5
x 4
add to favorites
×
Save as Personal and add changes to this tab that will be seen only by you. Learn more ›
×
You can save this tab as Personal to edit and correct it or add notes. All changes will be seen only by you. Learn more »
launch autoscroll
font size
0
reset
how to read this tab
guitar tuner
edit
Autoscroll
slow
fast
+/-
esc
set tempo
stop
Author
Difficulty
-------------------------------------------------------------------------------
              Christmas Song (Chestnuts Roasting on an Open Fire)
-------------------------------------------------------------------------------

Traditional Christmas Song

Music By: Torme and Wells
Guitar Arrangement:  by me


1:  Eb      Bb7       Eb6     Bb13    Eb6     Bbm7      Ab      Ab7  G7
e|------11--10-8-----|---------------|-----8---6-------|---------------------|
B|-------8---9--11-9-|-8---8---8---6-|-----8---6-9-8-6-|-4-------4----3------|
G|---8---8--10-------|-5-------7---7-|-8---5---6-------|-5-------5----4------|
D|---8---8---8-------|-5-------6---6-|-5---5---8-------|-6-------4----3------|
A|--10---------------|-6-------------|-6---6---8-------|-6-------6----5------|
E|--11---------------|---------6-----|---------6-------|-4-------4----3------|

   Cm      Ab6        Eb     D/A  D7    G   Abm Db13   Gb      Bb7
e|------------------|---6-8--10------|--7-7-9-7-6-4--|-6-------6-------------|
B|-4---4---6-6-4-6--|-8-8----10---13-|--8---9---4----|-7-------6-9-8-6-------|
G|-5---3---4--------|-8-8----11---11-|--7---8---4----|-6-------7-------------|
D|-5---5---6--------|-8------10---10-|--9---6---3----|-8-------6-------------|
A|-3-------6--------|-6------12---12-|-10-------4----|-9-------8-------------|
E|-----6---4--------|-------------10-|---------------|---------6-------------|

2:  Eb      Bb7       Eb6     Bb13    Eb6     Bbm7      Ab      Ab7  G7
e|------11--10-8-----|---------------|-----8---6-------|---------------------|
B|-------8---9--11-9-|-8---8---8---6-|-----8---6-9-8-6-|-4-------4----3------|
G|---8---8--10-------|-5-------7---7-|-8---5---6-------|-5-------5----4------|
D|---8---8---8-------|-5-------6---6-|-5---5---8-------|-6-------4----3------|
A|--10---------------|-6-------------|-6---6---8-------|-6-------6----5------|
E|--11---------------|---------6-----|---------6-------|-4-------4----3------|

   Cm      Ab6        Eb     D/A  D7    Gm7  C7   Fm7  Bb7 Eb     EbM7
e|------------------|---6-8--10------|--------8----------|-------------------|
B|-4---4---6-6-4-6--|-8-8----10---13-|-11-----8-11-9-----|-4-------4-3-4-----|
G|-5---3---4--------|-8-8----11---11-|-10-12--9---10---7-|-3-------3---------|
D|-5---5---6--------|-8------10---10-|-12-----8---10---6-|-5-------5---------|
A|-3-------6--------|-6------12---12-|-10----10----8---8-|-6-------6---------|
E|-----6---4--------|-------------10-|--------8--------6-|-------------------|


   Bbm7    Eb13   Bbm7      EbM7    Bbm7    Eb13      AbM9       EbM7
e|-9-------8-6-5-|-6--------------|-9-8-9-8-9-8-6---|-6----------------------|
B|-6-------6---6-|-6--------4-3-4-|-6-------6-----9-|-4------------4-3-4-----|
G|-6-------6---6-|-6--------3-----|-6-------6-------|-5------------3---------|
D|-6-------5-----|-6--------5-----|-6-------5-------|-5------------5---------|
A|---------6---6-|----------6-----|---------6-------|--------------6---------|
E|-6-------------|-6--------------|-6---------------|-4----------------------|

   Abm7    Db13    GbM9     Gb/Db   Cm11     F7      Bb7          Bb6/7
e|-7-6-7---6-4-2-|-4--------2-4-2-|----------------|-------------------------|
B|-4-------4---4-|-2--------2-----|-6-6--6-6-6-6-6-|-6-------------8---------|
G|-4-------4---4-|-3--------3-----|-8--------8-----|-7-------------7---------|
D|-6-------3-----|-3--------------|-8--------7-----|-6-------------6---------|
A|-6-------4---4-|----------4-----|----------8-----|-8-------------8---------|
E|-4-------------|-2--------------|-8--------------|-6-------------6---------|


3:  Eb      Bb7       Eb6     Bb13    Eb6     Bbm7      Ab      Ab7  G7
e|------11--10-8-----|---------------|-----8---6-------|---------------------|
B|-------8---9--11-9-|-8---8---8---6-|-----8---6-9-8-6-|-4-------4----3------|
G|---8---8--10-------|-5-------7---7-|-8---5---6-------|-5-------5----4------|
D|---8---8---8-------|-5-------6---6-|-5---5---8-------|-6-------4----3------|
A|--10---------------|-6-------------|-6---6---8-------|-6-------6----5------|
E|--11---------------|---------6-----|---------6-------|-4-------4----3------|

   Cm     Abm6     Eb/Bb Cm7  A7sus  Ab7     Eb Cm7 Fm7  B7-9  F9 E7+9  Eb6
e|-----------------|--------8--10----11----|-6-------1----1--|---------------|
B|-4--3-4-6----4-6-|-4--11--8---8----13-13-|-8---4---1----0--|-8---8----4----|
G|-5--3---4--------|-3---8--8---9----11----|-8---3---1----1--|-8---7----5----|
D|-5--5---6--------|-5---8------7----13----|-8---5---1----0--|-7---6----5----|
A|-3------6--------|-----------------11----|-6---3--------1--|-8---7----6----|
E|----6---4--------|-8---8-----------------|---------1-------|---------------|

            
            
Suggest correction
Creating personal tab
Creating personal tab
You can edit any tab online and save it as your Personal.

You can edit, replace or remove any tab part or add personal notes – all changes will be seen only by you.

Personal tabs can be accessed anytime from any device, even offline.
Learn more »
comments
print report bad tab
1 comment total.
0 reply
Pencom [tm] 29,654 Feb 13, 2014 11:20 AM

Wow...a lot of work went into this.....wonderful!

guest
You may want to rate the tab now too:
select rating
Wanna post a correction for this tab? Suggest correction